  0
SECTION
  2
BLOCKS
  0
ENDSEC
  0
SECTION
  2
ENTITIES
  0
LINE
  8
0
 10
-89
 20
-1
 11
89
 21
-1
  0
LINE
  8
0
 10
89
 20
-1
 11
91
 21
-3
  0
LINE
  8
0
 10
91
 20
-3
 11
136
 21
-3
  0
LINE
  8
0
 10
136
 20
-3
 11
139
 21
3
  0
LINE
  8
0
 10
139
 20
3
 11
139
 21
33
  0
LINE
  8
0
 10
139
 20
33
 11
137
 21
35
  0
LINE
  8
0
 10
137
 20
35
 11
100
 21
35
  0
LINE
  8
0
 10
100
 20
35
 11
93
 21
47
  0
LINE
  8
0
 10
93
 20
47
 11
-93
 21
47
  0
LINE
  8
0
 10
-93
 20
47
 11
-100
 21
35
  0
LINE
  8
0
 10
-100
 20
35
 11
-137
 21
35
  0
LINE
  8
0
 10
-137
 20
35
 11
-139
 21
33
  0
LINE
  8
0
 10
-139
 20
33
 11
-139
 21
3
  0
LINE
  8
0
 10
-139
 20
3
 11
-136
 21
-3
  0
LINE
  8
0
 10
-136
 20
-3
 11
-91
 21
-3
  0
LINE
  8
0
 10
-91
 20
-3
 11
-89
 21
-1
  0
LINE
  8
0
 10
-90.6568
 20
35.5082
 11
-90.9635
 21
35.5734
  0
LINE
  8
0
 10
-90.9635
 20
35.5734
 11
-91.25
 21
35.701
  0
LINE
  8
0
 10
-91.25
 20
35.701
 11
-91.5037
 21
35.8853
  0
LINE
  8
0
 10
-91.5037
 20
35.8853
 11
-91.7135
 21
36.1183
  0
LINE
  8
0
 10
-91.7135
 20
36.1183
 11
-91.8703
 21
36.3899
  0
LINE
  8
0
 10
-91.8703
 20
36.3899
 11
-91.9672
 21
36.6881
  0
LINE
  8
0
 10
-91.9672
 20
36.6881
 11
-92
 21
37
  0
LINE
  8
0
 10
-92
 20
37
 11
-91.9672
 21
37.3119
  0
LINE
  8
0
 10
-91.9672
 20
37.3119
 11
-91.8703
 21
37.6101
  0
LINE
  8
0
 10
-91.8703
 20
37.6101
 11
-91.7135
 21
37.8817
  0
LINE
  8
0
 10
-91.7135
 20
37.8817
 11
-91.5037
 21
38.1147
  0
LINE
  8
0
 10
-91.5037
 20
38.1147
 11
-91.25
 21
38.299
  0
LINE
  8
0
 10
-91.25
 20
38.299
 11
-90.9635
 21
38.4266
  0
LINE
  8
0
 10
-90.9635
 20
38.4266
 11
-90.6568
 21
38.4918
  0
LINE
  8
0
 10
-90.6568
 20
38.4918
 11
-90.3432
 21
38.4918
  0
LINE
  8
0
 10
-90.3432
 20
38.4918
 11
-90.0365
 21
38.4266
  0
LINE
  8
0
 10
-90.0365
 20
38.4266
 11
-89.75
 21
38.299
  0
LINE
  8
0
 10
-89.75
 20
38.299
 11
-89.4963
 21
38.1147
  0
LINE
  8
0
 10
-89.4963
 20
38.1147
 11
-89.2865
 21
37.8817
  0
LINE
  8
0
 10
-89.2865
 20
37.8817
 11
-89.1297
 21
37.6101
  0
LINE
  8
0
 10
-89.1297
 20
37.6101
 11
-89.0328
 21
37.3119
  0
LINE
  8
0
 10
-89.0328
 20
37.3119
 11
-89
 21
37
  0
LINE
  8
0
 10
-89
 20
37
 11
-89.0328
 21
36.6881
  0
LINE
  8
0
 10
-89.0328
 20
36.6881
 11
-89.1297
 21
36.3899
  0
LINE
  8
0
 10
-89.1297
 20
36.3899
 11
-89.2865
 21
36.1183
  0
LINE
  8
0
 10
-89.2865
 20
36.1183
 11
-89.4963
 21
35.8853
  0
LINE
  8
0
 10
-89.4963
 20
35.8853
 11
-89.75
 21
35.701
  0
LINE
  8
0
 10
-89.75
 20
35.701
 11
-90.0365
 21
35.5734
  0
LINE
  8
0
 10
-90.0365
 20
35.5734
 11
-90.3432
 21
35.5082
  0
LINE
  8
0
 10
-90.3432
 20
35.5082
 11
-90.6568
 21
35.5082
  0
LINE
  8
0
 10
-79.6568
 20
35.5082
 11
-79.9635
 21
35.5734
  0
LINE
  8
0
 10
-79.9635
 20
35.5734
 11
-80.25
 21
35.701
  0
LINE
  8
0
 10
-80.25
 20
35.701
 11
-80.5037
 21
35.8853
  0
LINE
  8
0
 10
-80.5037
 20
35.8853
 11
-80.7135
 21
36.1183
  0
LINE
  8
0
 10
-80.7135
 20
36.1183
 11
-80.8703
 21
36.3899
  0
LINE
  8
0
 10
-80.8703
 20
36.3899
 11
-80.9672
 21
36.6881
  0
LINE
  8
0
 10
-80.9672
 20
36.6881
 11
-81
 21
37
  0
LINE
  8
0
 10
-81
 20
37
 11
-80.9672
 21
37.3119
  0
LINE
  8
0
 10
-80.9672
 20
37.3119
 11
-80.8703
 21
37.6101
  0
LINE
  8
0
 10
-80.8703
 20
37.6101
 11
-80.7135
 21
37.8817
  0
LINE
  8
0
 10
-80.7135
 20
37.8817
 11
-80.5037
 21
38.1147
  0
LINE
  8
0
 10
-80.5037
 20
38.1147
 11
-80.25
 21
38.299
  0
LINE
  8
0
 10
-80.25
 20
38.299
 11
-79.9635
 21
38.4266
  0
LINE
  8
0
 10
-79.9635
 20
38.4266
 11
-79.6568
 21
38.4918
  0
LINE
  8
0
 10
-79.6568
 20
38.4918
 11
-79.3432
 21
38.4918
  0
LINE
  8
0
 10
-79.3432
 20
38.4918
 11
-79.0365
 21
38.4266
  0
LINE
  8
0
 10
-79.0365
 20
38.4266
 11
-78.75
 21
38.299
  0
LINE
  8
0
 10
-78.75
 20
38.299
 11
-78.4963
 21
38.1147
  0
LINE
  8
0
 10
-78.4963
 20
38.1147
 11
-78.2865
 21
37.8817
  0
LINE
  8
0
 10
-78.2865
 20
37.8817
 11
-78.1297
 21
37.6101
  0
LINE
  8
0
 10
-78.1297
 20
37.6101
 11
-78.0328
 21
37.3119
  0
LINE
  8
0
 10
-78.0328
 20
37.3119
 11
-78
 21
37
  0
LINE
  8
0
 10
-78
 20
37
 11
-78.0328
 21
36.6881
  0
LINE
  8
0
 10
-78.0328
 20
36.6881
 11
-78.1297
 21
36.3899
  0
LINE
  8
0
 10
-78.1297
 20
36.3899
 11
-78.2865
 21
36.1183
  0
LINE
  8
0
 10
-78.2865
 20
36.1183
 11
-78.4963
 21
35.8853
  0
LINE
  8
0
 10
-78.4963
 20
35.8853
 11
-78.75
 21
35.701
  0
LINE
  8
0
 10
-78.75
 20
35.701
 11
-79.0365
 21
35.5734
  0
LINE
  8
0
 10
-79.0365
 20
35.5734
 11
-79.3432
 21
35.5082
  0
LINE
  8
0
 10
-79.3432
 20
35.5082
 11
-79.6568
 21
35.5082
  0
LINE
  8
0
 10
90.3432
 20
35.5082
 11
90.0365
 21
35.5734
  0
LINE
  8
0
 10
90.0365
 20
35.5734
 11
89.75
 21
35.701
  0
LINE
  8
0
 10
89.75
 20
35.701
 11
89.4963
 21
35.8853
  0
LINE
  8
0
 10
89.4963
 20
35.8853
 11
89.2865
 21
36.1183
  0
LINE
  8
0
 10
89.2865
 20
36.1183
 11
89.1297
 21
36.3899
  0
LINE
  8
0
 10
89.1297
 20
36.3899
 11
89.0328
 21
36.6881
  0
LINE
  8
0
 10
89.0328
 20
36.6881
 11
89
 21
37
  0
LINE
  8
0
 10
89
 20
37
 11
89.0328
 21
37.3119
  0
LINE
  8
0
 10
89.0328
 20
37.3119
 11
89.1297
 21
37.6101
  0
LINE
  8
0
 10
89.1297
 20
37.6101
 11
89.2865
 21
37.8817
  0
LINE
  8
0
 10
89.2865
 20
37.8817
 11
89.4963
 21
38.1147
  0
LINE
  8
0
 10
89.4963
 20
38.1147
 11
89.75
 21
38.299
  0
LINE
  8
0
 10
89.75
 20
38.299
 11
90.0365
 21
38.4266
  0
LINE
  8
0
 10
90.0365
 20
38.4266
 11
90.3432
 21
38.4918
  0
LINE
  8
0
 10
90.3432
 20
38.4918
 11
90.6568
 21
38.4918
  0
LINE
  8
0
 10
90.6568
 20
38.4918
 11
90.9635
 21
38.4266
  0
LINE
  8
0
 10
90.9635
 20
38.4266
 11
91.25
 21
38.299
  0
LINE
  8
0
 10
91.25
 20
38.299
 11
91.5037
 21
38.1147
  0
LINE
  8
0
 10
91.5037
 20
38.1147
 11
91.7135
 21
37.8817
  0
LINE
  8
0
 10
91.7135
 20
37.8817
 11
91.8703
 21
37.6101
  0
LINE
  8
0
 10
91.8703
 20
37.6101
 11
91.9672
 21
37.3119
  0
LINE
  8
0
 10
91.9672
 20
37.3119
 11
92
 21
37
  0
LINE
  8
0
 10
92
 20
37
 11
91.9672
 21
36.6881
  0
LINE
  8
0
 10
91.9672
 20
36.6881
 11
91.8703
 21
36.3899
  0
LINE
  8
0
 10
91.8703
 20
36.3899
 11
91.7135
 21
36.1183
  0
LINE
  8
0
 10
91.7135
 20
36.1183
 11
91.5037
 21
35.8853
  0
LINE
  8
0
 10
91.5037
 20
35.8853
 11
91.25
 21
35.701
  0
LINE
  8
0
 10
91.25
 20
35.701
 11
90.9635
 21
35.5734
  0
LINE
  8
0
 10
90.9635
 20
35.5734
 11
90.6568
 21
35.5082
  0
LINE
  8
0
 10
90.6568
 20
35.5082
 11
90.3432
 21
35.5082
  0
LINE
  8
0
 10
79.3432
 20
35.5082
 11
79.0365
 21
35.5734
  0
LINE
  8
0
 10
79.0365
 20
35.5734
 11
78.75
 21
35.701
  0
LINE
  8
0
 10
78.75
 20
35.701
 11
78.4963
 21
35.8853
  0
LINE
  8
0
 10
78.4963
 20
35.8853
 11
78.2865
 21
36.1183
  0
LINE
  8
0
 10
78.2865
 20
36.1183
 11
78.1297
 21
36.3899
  0
LINE
  8
0
 10
78.1297
 20
36.3899
 11
78.0328
 21
36.6881
  0
LINE
  8
0
 10
78.0328
 20
36.6881
 11
78
 21
37
  0
LINE
  8
0
 10
78
 20
37
 11
78.0328
 21
37.3119
  0
LINE
  8
0
 10
78.0328
 20
37.3119
 11
78.1297
 21
37.6101
  0
LINE
  8
0
 10
78.1297
 20
37.6101
 11
78.2865
 21
37.8817
  0
LINE
  8
0
 10
78.2865
 20
37.8817
 11
78.4963
 21
38.1147
  0
LINE
  8
0
 10
78.4963
 20
38.1147
 11
78.75
 21
38.299
  0
LINE
  8
0
 10
78.75
 20
38.299
 11
79.0365
 21
38.4266
  0
LINE
  8
0
 10
79.0365
 20
38.4266
 11
79.3432
 21
38.4918
  0
LINE
  8
0
 10
79.3432
 20
38.4918
 11
79.6568
 21
38.4918
  0
LINE
  8
0
 10
79.6568
 20
38.4918
 11
79.9635
 21
38.4266
  0
LINE
  8
0
 10
79.9635
 20
38.4266
 11
80.25
 21
38.299
  0
LINE
  8
0
 10
80.25
 20
38.299
 11
80.5037
 21
38.1147
  0
LINE
  8
0
 10
80.5037
 20
38.1147
 11
80.7135
 21
37.8817
  0
LINE
  8
0
 10
80.7135
 20
37.8817
 11
80.8703
 21
37.6101
  0
LINE
  8
0
 10
80.8703
 20
37.6101
 11
80.9672
 21
37.3119
  0
LINE
  8
0
 10
80.9672
 20
37.3119
 11
81
 21
37
  0
LINE
  8
0
 10
81
 20
37
 11
80.9672
 21
36.6881
  0
LINE
  8
0
 10
80.9672
 20
36.6881
 11
80.8703
 21
36.3899
  0
LINE
  8
0
 10
80.8703
 20
36.3899
 11
80.7135
 21
36.1183
  0
LINE
  8
0
 10
80.7135
 20
36.1183
 11
80.5037
 21
35.8853
  0
LINE
  8
0
 10
80.5037
 20
35.8853
 11
80.25
 21
35.701
  0
LINE
  8
0
 10
80.25
 20
35.701
 11
79.9635
 21
35.5734
  0
LINE
  8
0
 10
79.9635
 20
35.5734
 11
79.6568
 21
35.5082
  0
LINE
  8
0
 10
79.6568
 20
35.5082
 11
79.3432
 21
35.5082
  0
LINE
  8
0
 10
110.139
 20
27.6137
 11
109.627
 21
27.7224
  0
LINE
  8
0
 10
109.627
 20
27.7224
 11
109.15
 21
27.9349
  0
LINE
  8
0
 10
109.15
 20
27.9349
 11
108.727
 21
28.2421
  0
LINE
  8
0
 10
108.727
 20
28.2421
 11
108.377
 21
28.6305
  0
LINE
  8
0
 10
108.377
 20
28.6305
 11
108.116
 21
29.0831
  0
LINE
  8
0
 10
108.116
 20
29.0831
 11
107.955
 21
29.5802
  0
LINE
  8
0
 10
107.955
 20
29.5802
 11
107.9
 21
30.1
  0
LINE
  8
0
 10
107.9
 20
30.1
 11
107.955
 21
30.6198
  0
LINE
  8
0
 10
107.955
 20
30.6198
 11
108.116
 21
31.1168
  0
LINE
  8
0
 10
108.116
 20
31.1168
 11
108.377
 21
31.5695
  0
LINE
  8
0
 10
108.377
 20
31.5695
 11
108.727
 21
31.9579
  0
LINE
  8
0
 10
108.727
 20
31.9579
 11
109.15
 21
32.2651
  0
LINE
  8
0
 10
109.15
 20
32.2651
 11
109.627
 21
32.4776
  0
LINE
  8
0
 10
109.627
 20
32.4776
 11
110.139
 21
32.5863
  0
LINE
  8
0
 10
110.139
 20
32.5863
 11
110.661
 21
32.5863
  0
LINE
  8
0
 10
110.661
 20
32.5863
 11
111.173
 21
32.4776
  0
LINE
  8
0
 10
111.173
 20
32.4776
 11
111.65
 21
32.2651
  0
LINE
  8
0
 10
111.65
 20
32.2651
 11
112.073
 21
31.9579
  0
LINE
  8
0
 10
112.073
 20
31.9579
 11
112.423
 21
31.5695
  0
LINE
  8
0
 10
112.423
 20
31.5695
 11
112.684
 21
31.1168
  0
LINE
  8
0
 10
112.684
 20
31.1168
 11
112.845
 21
30.6198
  0
LINE
  8
0
 10
112.845
 20
30.6198
 11
112.9
 21
30.1
  0
LINE
  8
0
 10
112.9
 20
30.1
 11
112.845
 21
29.5802
  0
LINE
  8
0
 10
112.845
 20
29.5802
 11
112.684
 21
29.0831
  0
LINE
  8
0
 10
112.684
 20
29.0831
 11
112.423
 21
28.6305
  0
LINE
  8
0
 10
112.423
 20
28.6305
 11
112.073
 21
28.2421
  0
LINE
  8
0
 10
112.073
 20
28.2421
 11
111.65
 21
27.9349
  0
LINE
  8
0
 10
111.65
 20
27.9349
 11
111.173
 21
27.7224
  0
LINE
  8
0
 10
111.173
 20
27.7224
 11
110.661
 21
27.6137
  0
LINE
  8
0
 10
110.661
 20
27.6137
 11
110.139
 21
27.6137
  0
LINE
  8
0
 10
133.339
 20
27.6137
 11
132.827
 21
27.7224
  0
LINE
  8
0
 10
132.827
 20
27.7224
 11
132.35
 21
27.9349
  0
LINE
  8
0
 10
132.35
 20
27.9349
 11
131.927
 21
28.2421
  0
LINE
  8
0
 10
131.927
 20
28.2421
 11
131.577
 21
28.6305
  0
LINE
  8
0
 10
131.577
 20
28.6305
 11
131.316
 21
29.0831
  0
LINE
  8
0
 10
131.316
 20
29.0831
 11
131.155
 21
29.5802
  0
LINE
  8
0
 10
131.155
 20
29.5802
 11
131.1
 21
30.1
  0
LINE
  8
0
 10
131.1
 20
30.1
 11
131.155
 21
30.6198
  0
LINE
  8
0
 10
131.155
 20
30.6198
 11
131.316
 21
31.1168
  0
LINE
  8
0
 10
131.316
 20
31.1168
 11
131.577
 21
31.5695
  0
LINE
  8
0
 10
131.577
 20
31.5695
 11
131.927
 21
31.9579
  0
LINE
  8
0
 10
131.927
 20
31.9579
 11
132.35
 21
32.2651
  0
LINE
  8
0
 10
132.35
 20
32.2651
 11
132.827
 21
32.4776
  0
LINE
  8
0
 10
132.827
 20
32.4776
 11
133.339
 21
32.5863
  0
LINE
  8
0
 10
133.339
 20
32.5863
 11
133.861
 21
32.5863
  0
LINE
  8
0
 10
133.861
 20
32.5863
 11
134.373
 21
32.4776
  0
LINE
  8
0
 10
134.373
 20
32.4776
 11
134.85
 21
32.2651
  0
LINE
  8
0
 10
134.85
 20
32.2651
 11
135.273
 21
31.9579
  0
LINE
  8
0
 10
135.273
 20
31.9579
 11
135.623
 21
31.5695
  0
LINE
  8
0
 10
135.623
 20
31.5695
 11
135.884
 21
31.1168
  0
LINE
  8
0
 10
135.884
 20
31.1168
 11
136.045
 21
30.6198
  0
LINE
  8
0
 10
136.045
 20
30.6198
 11
136.1
 21
30.1
  0
LINE
  8
0
 10
136.1
 20
30.1
 11
136.045
 21
29.5802
  0
LINE
  8
0
 10
136.045
 20
29.5802
 11
135.884
 21
29.0831
  0
LINE
  8
0
 10
135.884
 20
29.0831
 11
135.623
 21
28.6305
  0
LINE
  8
0
 10
135.623
 20
28.6305
 11
135.273
 21
28.2421
  0
LINE
  8
0
 10
135.273
 20
28.2421
 11
134.85
 21
27.9349
  0
LINE
  8
0
 10
134.85
 20
27.9349
 11
134.373
 21
27.7224
  0
LINE
  8
0
 10
134.373
 20
27.7224
 11
133.861
 21
27.6137
  0
LINE
  8
0
 10
133.861
 20
27.6137
 11
133.339
 21
27.6137
  0
LINE
  8
0
 10
-110.661
 20
27.6137
 11
-111.173
 21
27.7224
  0
LINE
  8
0
 10
-111.173
 20
27.7224
 11
-111.65
 21
27.9349
  0
LINE
  8
0
 10
-111.65
 20
27.9349
 11
-112.073
 21
28.2421
  0
LINE
  8
0
 10
-112.073
 20
28.2421
 11
-112.423
 21
28.6305
  0
LINE
  8
0
 10
-112.423
 20
28.6305
 11
-112.684
 21
29.0831
  0
LINE
  8
0
 10
-112.684
 20
29.0831
 11
-112.845
 21
29.5802
  0
LINE
  8
0
 10
-112.845
 20
29.5802
 11
-112.9
 21
30.1
  0
LINE
  8
0
 10
-112.9
 20
30.1
 11
-112.845
 21
30.6198
  0
LINE
  8
0
 10
-112.845
 20
30.6198
 11
-112.684
 21
31.1168
  0
LINE
  8
0
 10
-112.684
 20
31.1168
 11
-112.423
 21
31.5695
  0
LINE
  8
0
 10
-112.423
 20
31.5695
 11
-112.073
 21
31.9579
  0
LINE
  8
0
 10
-112.073
 20
31.9579
 11
-111.65
 21
32.2651
  0
LINE
  8
0
 10
-111.65
 20
32.2651
 11
-111.173
 21
32.4776
  0
LINE
  8
0
 10
-111.173
 20
32.4776
 11
-110.661
 21
32.5863
  0
LINE
  8
0
 10
-110.661
 20
32.5863
 11
-110.139
 21
32.5863
  0
LINE
  8
0
 10
-110.139
 20
32.5863
 11
-109.627
 21
32.4776
  0
LINE
  8
0
 10
-109.627
 20
32.4776
 11
-109.15
 21
32.2651
  0
LINE
  8
0
 10
-109.15
 20
32.2651
 11
-108.727
 21
31.9579
  0
LINE
  8
0
 10
-108.727
 20
31.9579
 11
-108.377
 21
31.5695
  0
LINE
  8
0
 10
-108.377
 20
31.5695
 11
-108.116
 21
31.1168
  0
LINE
  8
0
 10
-108.116
 20
31.1168
 11
-107.955
 21
30.6198
  0
LINE
  8
0
 10
-107.955
 20
30.6198
 11
-107.9
 21
30.1
  0
LINE
  8
0
 10
-107.9
 20
30.1
 11
-107.955
 21
29.5802
  0
LINE
  8
0
 10
-107.955
 20
29.5802
 11
-108.116
 21
29.0831
  0
LINE
  8
0
 10
-108.116
 20
29.0831
 11
-108.377
 21
28.6305
  0
LINE
  8
0
 10
-108.377
 20
28.6305
 11
-108.727
 21
28.2421
  0
LINE
  8
0
 10
-108.727
 20
28.2421
 11
-109.15
 21
27.9349
  0
LINE
  8
0
 10
-109.15
 20
27.9349
 11
-109.627
 21
27.7224
  0
LINE
  8
0
 10
-109.627
 20
27.7224
 11
-110.139
 21
27.6137
  0
LINE
  8
0
 10
-110.139
 20
27.6137
 11
-110.661
 21
27.6137
  0
LINE
  8
0
 10
-133.861
 20
27.6137
 11
-134.373
 21
27.7224
  0
LINE
  8
0
 10
-134.373
 20
27.7224
 11
-134.85
 21
27.9349
  0
LINE
  8
0
 10
-134.85
 20
27.9349
 11
-135.273
 21
28.2421
  0
LINE
  8
0
 10
-135.273
 20
28.2421
 11
-135.623
 21
28.6305
  0
LINE
  8
0
 10
-135.623
 20
28.6305
 11
-135.884
 21
29.0831
  0
LINE
  8
0
 10
-135.884
 20
29.0831
 11
-136.045
 21
29.5802
  0
LINE
  8
0
 10
-136.045
 20
29.5802
 11
-136.1
 21
30.1
  0
LINE
  8
0
 10
-136.1
 20
30.1
 11
-136.045
 21
30.6198
  0
LINE
  8
0
 10
-136.045
 20
30.6198
 11
-135.884
 21
31.1168
  0
LINE
  8
0
 10
-135.884
 20
31.1168
 11
-135.623
 21
31.5695
  0
LINE
  8
0
 10
-135.623
 20
31.5695
 11
-135.273
 21
31.9579
  0
LINE
  8
0
 10
-135.273
 20
31.9579
 11
-134.85
 21
32.2651
  0
LINE
  8
0
 10
-134.85
 20
32.2651
 11
-134.373
 21
32.4776
  0
LINE
  8
0
 10
-134.373
 20
32.4776
 11
-133.861
 21
32.5863
  0
LINE
  8
0
 10
-133.861
 20
32.5863
 11
-133.339
 21
32.5863
  0
LINE
  8
0
 10
-133.339
 20
32.5863
 11
-132.827
 21
32.4776
  0
LINE
  8
0
 10
-132.827
 20
32.4776
 11
-132.35
 21
32.2651
  0
LINE
  8
0
 10
-132.35
 20
32.2651
 11
-131.927
 21
31.9579
  0
LINE
  8
0
 10
-131.927
 20
31.9579
 11
-131.577
 21
31.5695
  0
LINE
  8
0
 10
-131.577
 20
31.5695
 11
-131.316
 21
31.1168
  0
LINE
  8
0
 10
-131.316
 20
31.1168
 11
-131.155
 21
30.6198
  0
LINE
  8
0
 10
-131.155
 20
30.6198
 11
-131.1
 21
30.1
  0
LINE
  8
0
 10
-131.1
 20
30.1
 11
-131.155
 21
29.5802
  0
LINE
  8
0
 10
-131.155
 20
29.5802
 11
-131.316
 21
29.0831
  0
LINE
  8
0
 10
-131.316
 20
29.0831
 11
-131.577
 21
28.6305
  0
LINE
  8
0
 10
-131.577
 20
28.6305
 11
-131.927
 21
28.2421
  0
LINE
  8
0
 10
-131.927
 20
28.2421
 11
-132.35
 21
27.9349
  0
LINE
  8
0
 10
-132.35
 20
27.9349
 11
-132.827
 21
27.7224
  0
LINE
  8
0
 10
-132.827
 20
27.7224
 11
-133.339
 21
27.6137
  0
LINE
  8
0
 10
-133.339
 20
27.6137
 11
-133.861
 21
27.6137
  0
LINE
  8
0
 10
-0.156784
 20
27.5082
 11
-0.463516
 21
27.5734
  0
LINE
  8
0
 10
-0.463516
 20
27.5734
 11
-0.75
 21
27.701
  0
LINE
  8
0
 10
-0.75
 20
27.701
 11
-1.00369
 21
27.8853
  0
LINE
  8
0
 10
-1.00369
 20
27.8853
 11
-1.21352
 21
28.1183
  0
LINE
  8
0
 10
-1.21352
 20
28.1183
 11
-1.37032
 21
28.3899
  0
LINE
  8
0
 10
-1.37032
 20
28.3899
 11
-1.46721
 21
28.6881
  0
LINE
  8
0
 10
-1.46721
 20
28.6881
 11
-1.5
 21
29
  0
LINE
  8
0
 10
-1.5
 20
29
 11
-1.46721
 21
29.3119
  0
LINE
  8
0
 10
-1.46721
 20
29.3119
 11
-1.37032
 21
29.6101
  0
LINE
  8
0
 10
-1.37032
 20
29.6101
 11
-1.21352
 21
29.8817
  0
LINE
  8
0
 10
-1.21352
 20
29.8817
 11
-1.00369
 21
30.1147
  0
LINE
  8
0
 10
-1.00369
 20
30.1147
 11
-0.749985
 21
30.299
  0
LINE
  8
0
 10
-0.749985
 20
30.299
 11
-0.463516
 21
30.4266
  0
LINE
  8
0
 10
-0.463516
 20
30.4266
 11
-0.156784
 21
30.4918
  0
LINE
  8
0
 10
-0.156784
 20
30.4918
 11
0.156784
 21
30.4918
  0
LINE
  8
0
 10
0.156784
 20
30.4918
 11
0.463516
 21
30.4266
  0
LINE
  8
0
 10
0.463516
 20
30.4266
 11
0.75
 21
30.299
  0
LINE
  8
0
 10
0.75
 20
30.299
 11
1.00369
 21
30.1147
  0
LINE
  8
0
 10
1.00369
 20
30.1147
 11
1.21352
 21
29.8817
  0
LINE
  8
0
 10
1.21352
 20
29.8817
 11
1.37032
 21
29.6101
  0
LINE
  8
0
 10
1.37032
 20
29.6101
 11
1.46721
 21
29.3119
  0
LINE
  8
0
 10
1.46721
 20
29.3119
 11
1.5
 21
29
  0
LINE
  8
0
 10
1.5
 20
29
 11
1.46721
 21
28.6881
  0
LINE
  8
0
 10
1.46721
 20
28.6881
 11
1.37032
 21
28.3899
  0
LINE
  8
0
 10
1.37032
 20
28.3899
 11
1.21352
 21
28.1183
  0
LINE
  8
0
 10
1.21352
 20
28.1183
 11
1.00369
 21
27.8853
  0
LINE
  8
0
 10
1.00369
 20
27.8853
 11
0.75
 21
27.701
  0
LINE
  8
0
 10
0.75
 20
27.701
 11
0.463516
 21
27.5734
  0
LINE
  8
0
 10
0.463516
 20
27.5734
 11
0.156784
 21
27.5082
  0
LINE
  8
0
 10
0.156784
 20
27.5082
 11
-0.156784
 21
27.5082
  0
LINE
  8
0
 10
110.139
 20
4.41368
 11
109.627
 21
4.52235
  0
LINE
  8
0
 10
109.627
 20
4.52235
 11
109.15
 21
4.73492
  0
LINE
  8
0
 10
109.15
 20
4.73492
 11
108.727
 21
5.04213
  0
LINE
  8
0
 10
108.727
 20
5.04213
 11
108.377
 21
5.43053
  0
LINE
  8
0
 10
108.377
 20
5.43053
 11
108.116
 21
5.88315
  0
LINE
  8
0
 10
108.116
 20
5.88315
 11
107.955
 21
6.38022
  0
LINE
  8
0
 10
107.955
 20
6.38022
 11
107.9
 21
6.89999
  0
LINE
  8
0
 10
107.9
 20
6.89999
 11
107.955
 21
7.41977
  0
LINE
  8
0
 10
107.955
 20
7.41977
 11
108.116
 21
7.91684
  0
LINE
  8
0
 10
108.116
 20
7.91684
 11
108.377
 21
8.36946
  0
LINE
  8
0
 10
108.377
 20
8.36946
 11
108.727
 21
8.75786
  0
LINE
  8
0
 10
108.727
 20
8.75786
 11
109.15
 21
9.06506
  0
LINE
  8
0
 10
109.15
 20
9.06506
 11
109.627
 21
9.27763
  0
LINE
  8
0
 10
109.627
 20
9.27763
 11
110.139
 21
9.38629
  0
LINE
  8
0
 10
110.139
 20
9.38629
 11
110.661
 21
9.38629
  0
LINE
  8
0
 10
110.661
 20
9.38629
 11
111.173
 21
9.27763
  0
LINE
  8
0
 10
111.173
 20
9.27763
 11
111.65
 21
9.06506
  0
LINE
  8
0
 10
111.65
 20
9.06506
 11
112.073
 21
8.75786
  0
LINE
  8
0
 10
112.073
 20
8.75786
 11
112.423
 21
8.36946
  0
LINE
  8
0
 10
112.423
 20
8.36946
 11
112.684
 21
7.91684
  0
LINE
  8
0
 10
112.684
 20
7.91684
 11
112.845
 21
7.41977
  0
LINE
  8
0
 10
112.845
 20
7.41977
 11
112.9
 21
6.89999
  0
LINE
  8
0
 10
112.9
 20
6.89999
 11
112.845
 21
6.38022
  0
LINE
  8
0
 10
112.845
 20
6.38022
 11
112.684
 21
5.88315
  0
LINE
  8
0
 10
112.684
 20
5.88315
 11
112.423
 21
5.43053
  0
LINE
  8
0
 10
112.423
 20
5.43053
 11
112.073
 21
5.04213
  0
LINE
  8
0
 10
112.073
 20
5.04213
 11
111.65
 21
4.73492
  0
LINE
  8
0
 10
111.65
 20
4.73492
 11
111.173
 21
4.52235
  0
LINE
  8
0
 10
111.173
 20
4.52235
 11
110.661
 21
4.41368
  0
LINE
  8
0
 10
110.661
 20
4.41368
 11
110.139
 21
4.41368
  0
LINE
  8
0
 10
133.339
 20
4.41368
 11
132.827
 21
4.52235
  0
LINE
  8
0
 10
132.827
 20
4.52235
 11
132.35
 21
4.73492
  0
LINE
  8
0
 10
132.35
 20
4.73492
 11
131.927
 21
5.04213
  0
LINE
  8
0
 10
131.927
 20
5.04213
 11
131.577
 21
5.43053
  0
LINE
  8
0
 10
131.577
 20
5.43053
 11
131.316
 21
5.88315
  0
LINE
  8
0
 10
131.316
 20
5.88315
 11
131.155
 21
6.38022
  0
LINE
  8
0
 10
131.155
 20
6.38022
 11
131.1
 21
6.89999
  0
LINE
  8
0
 10
131.1
 20
6.89999
 11
131.155
 21
7.41977
  0
LINE
  8
0
 10
131.155
 20
7.41977
 11
131.316
 21
7.91684
  0
LINE
  8
0
 10
131.316
 20
7.91684
 11
131.577
 21
8.36946
  0
LINE
  8
0
 10
131.577
 20
8.36946
 11
131.927
 21
8.75786
  0
LINE
  8
0
 10
131.927
 20
8.75786
 11
132.35
 21
9.06506
  0
LINE
  8
0
 10
132.35
 20
9.06506
 11
132.827
 21
9.27763
  0
LINE
  8
0
 10
132.827
 20
9.27763
 11
133.339
 21
9.38629
  0
LINE
  8
0
 10
133.339
 20
9.38629
 11
133.861
 21
9.38629
  0
LINE
  8
0
 10
133.861
 20
9.38629
 11
134.373
 21
9.27763
  0
LINE
  8
0
 10
134.373
 20
9.27763
 11
134.85
 21
9.06506
  0
LINE
  8
0
 10
134.85
 20
9.06506
 11
135.273
 21
8.75786
  0
LINE
  8
0
 10
135.273
 20
8.75786
 11
135.623
 21
8.36946
  0
LINE
  8
0
 10
135.623
 20
8.36946
 11
135.884
 21
7.91684
  0
LINE
  8
0
 10
135.884
 20
7.91684
 11
136.045
 21
7.41977
  0
LINE
  8
0
 10
136.045
 20
7.41977
 11
136.1
 21
6.89999
  0
LINE
  8
0
 10
136.1
 20
6.89999
 11
136.045
 21
6.38022
  0
LINE
  8
0
 10
136.045
 20
6.38022
 11
135.884
 21
5.88315
  0
LINE
  8
0
 10
135.884
 20
5.88315
 11
135.623
 21
5.43053
  0
LINE
  8
0
 10
135.623
 20
5.43053
 11
135.273
 21
5.04213
  0
LINE
  8
0
 10
135.273
 20
5.04213
 11
134.85
 21
4.73492
  0
LINE
  8
0
 10
134.85
 20
4.73492
 11
134.373
 21
4.52235
  0
LINE
  8
0
 10
134.373
 20
4.52235
 11
133.861
 21
4.41368
  0
LINE
  8
0
 10
133.861
 20
4.41368
 11
133.339
 21
4.41368
  0
LINE
  8
0
 10
-110.661
 20
4.41368
 11
-111.173
 21
4.52235
  0
LINE
  8
0
 10
-111.173
 20
4.52235
 11
-111.65
 21
4.73492
  0
LINE
  8
0
 10
-111.65
 20
4.73492
 11
-112.073
 21
5.04213
  0
LINE
  8
0
 10
-112.073
 20
5.04213
 11
-112.423
 21
5.43053
  0
LINE
  8
0
 10
-112.423
 20
5.43053
 11
-112.684
 21
5.88315
  0
LINE
  8
0
 10
-112.684
 20
5.88315
 11
-112.845
 21
6.38022
  0
LINE
  8
0
 10
-112.845
 20
6.38022
 11
-112.9
 21
6.89999
  0
LINE
  8
0
 10
-112.9
 20
6.89999
 11
-112.845
 21
7.41977
  0
LINE
  8
0
 10
-112.845
 20
7.41977
 11
-112.684
 21
7.91684
  0
LINE
  8
0
 10
-112.684
 20
7.91684
 11
-112.423
 21
8.36946
  0
LINE
  8
0
 10
-112.423
 20
8.36946
 11
-112.073
 21
8.75786
  0
LINE
  8
0
 10
-112.073
 20
8.75786
 11
-111.65
 21
9.06506
  0
LINE
  8
0
 10
-111.65
 20
9.06506
 11
-111.173
 21
9.27763
  0
LINE
  8
0
 10
-111.173
 20
9.27763
 11
-110.661
 21
9.38629
  0
LINE
  8
0
 10
-110.661
 20
9.38629
 11
-110.139
 21
9.38629
  0
LINE
  8
0
 10
-110.139
 20
9.38629
 11
-109.627
 21
9.27763
  0
LINE
  8
0
 10
-109.627
 20
9.27763
 11
-109.15
 21
9.06506
  0
LINE
  8
0
 10
-109.15
 20
9.06506
 11
-108.727
 21
8.75786
  0
LINE
  8
0
 10
-108.727
 20
8.75786
 11
-108.377
 21
8.36946
  0
LINE
  8
0
 10
-108.377
 20
8.36946
 11
-108.116
 21
7.91684
  0
LINE
  8
0
 10
-108.116
 20
7.91684
 11
-107.955
 21
7.41977
  0
LINE
  8
0
 10
-107.955
 20
7.41977
 11
-107.9
 21
6.89999
  0
LINE
  8
0
 10
-107.9
 20
6.89999
 11
-107.955
 21
6.38022
  0
LINE
  8
0
 10
-107.955
 20
6.38022
 11
-108.116
 21
5.88315
  0
LINE
  8
0
 10
-108.116
 20
5.88315
 11
-108.377
 21
5.43053
  0
LINE
  8
0
 10
-108.377
 20
5.43053
 11
-108.727
 21
5.04213
  0
LINE
  8
0
 10
-108.727
 20
5.04213
 11
-109.15
 21
4.73492
  0
LINE
  8
0
 10
-109.15
 20
4.73492
 11
-109.627
 21
4.52235
  0
LINE
  8
0
 10
-109.627
 20
4.52235
 11
-110.139
 21
4.41368
  0
LINE
  8
0
 10
-110.139
 20
4.41368
 11
-110.661
 21
4.41368
  0
LINE
  8
0
 10
-133.861
 20
4.41368
 11
-134.373
 21
4.52235
  0
LINE
  8
0
 10
-134.373
 20
4.52235
 11
-134.85
 21
4.73492
  0
LINE
  8
0
 10
-134.85
 20
4.73492
 11
-135.273
 21
5.04213
  0
LINE
  8
0
 10
-135.273
 20
5.04213
 11
-135.623
 21
5.43053
  0
LINE
  8
0
 10
-135.623
 20
5.43053
 11
-135.884
 21
5.88315
  0
LINE
  8
0
 10
-135.884
 20
5.88315
 11
-136.045
 21
6.38022
  0
LINE
  8
0
 10
-136.045
 20
6.38022
 11
-136.1
 21
6.89999
  0
LINE
  8
0
 10
-136.1
 20
6.89999
 11
-136.045
 21
7.41977
  0
LINE
  8
0
 10
-136.045
 20
7.41977
 11
-135.884
 21
7.91684
  0
LINE
  8
0
 10
-135.884
 20
7.91684
 11
-135.623
 21
8.36946
  0
LINE
  8
0
 10
-135.623
 20
8.36946
 11
-135.273
 21
8.75786
  0
LINE
  8
0
 10
-135.273
 20
8.75786
 11
-134.85
 21
9.06506
  0
LINE
  8
0
 10
-134.85
 20
9.06506
 11
-134.373
 21
9.27763
  0
LINE
  8
0
 10
-134.373
 20
9.27763
 11
-133.861
 21
9.38629
  0
LINE
  8
0
 10
-133.861
 20
9.38629
 11
-133.339
 21
9.38629
  0
LINE
  8
0
 10
-133.339
 20
9.38629
 11
-132.827
 21
9.27763
  0
LINE
  8
0
 10
-132.827
 20
9.27763
 11
-132.35
 21
9.06506
  0
LINE
  8
0
 10
-132.35
 20
9.06506
 11
-131.927
 21
8.75786
  0
LINE
  8
0
 10
-131.927
 20
8.75786
 11
-131.577
 21
8.36946
  0
LINE
  8
0
 10
-131.577
 20
8.36946
 11
-131.316
 21
7.91684
  0
LINE
  8
0
 10
-131.316
 20
7.91684
 11
-131.155
 21
7.41977
  0
LINE
  8
0
 10
-131.155
 20
7.41977
 11
-131.1
 21
6.89999
  0
LINE
  8
0
 10
-131.1
 20
6.89999
 11
-131.155
 21
6.38022
  0
LINE
  8
0
 10
-131.155
 20
6.38022
 11
-131.316
 21
5.88315
  0
LINE
  8
0
 10
-131.316
 20
5.88315
 11
-131.577
 21
5.43053
  0
LINE
  8
0
 10
-131.577
 20
5.43053
 11
-131.927
 21
5.04213
  0
LINE
  8
0
 10
-131.927
 20
5.04213
 11
-132.35
 21
4.73492
  0
LINE
  8
0
 10
-132.35
 20
4.73492
 11
-132.827
 21
4.52235
  0
LINE
  8
0
 10
-132.827
 20
4.52235
 11
-133.339
 21
4.41368
  0
LINE
  8
0
 10
-133.339
 20
4.41368
 11
-133.861
 21
4.41368
  0
LINE
  8
0
 10
-0.156784
 20
5.50821
 11
-0.463516
 21
5.57341
  0
LINE
  8
0
 10
-0.463516
 20
5.57341
 11
-0.75
 21
5.70096
  0
LINE
  8
0
 10
-0.75
 20
5.70096
 11
-1.00369
 21
5.88527
  0
LINE
  8
0
 10
-1.00369
 20
5.88527
 11
-1.21352
 21
6.11832
  0
LINE
  8
0
 10
-1.21352
 20
6.11832
 11
-1.37032
 21
6.38989
  0
LINE
  8
0
 10
-1.37032
 20
6.38989
 11
-1.46721
 21
6.68813
  0
LINE
  8
0
 10
-1.46721
 20
6.68813
 11
-1.5
 21
7
  0
LINE
  8
0
 10
-1.5
 20
7
 11
-1.46721
 21
7.31186
  0
LINE
  8
0
 10
-1.46721
 20
7.31186
 11
-1.37032
 21
7.61009
  0
LINE
  8
0
 10
-1.37032
 20
7.61009
 11
-1.21352
 21
7.88167
  0
LINE
  8
0
 10
-1.21352
 20
7.88167
 11
-1.00369
 21
8.11472
  0
LINE
  8
0
 10
-1.00369
 20
8.11472
 11
-0.749985
 21
8.29903
  0
LINE
  8
0
 10
-0.749985
 20
8.29903
 11
-0.463516
 21
8.42657
  0
LINE
  8
0
 10
-0.463516
 20
8.42657
 11
-0.156784
 21
8.49178
  0
LINE
  8
0
 10
-0.156784
 20
8.49178
 11
0.156784
 21
8.49178
  0
LINE
  8
0
 10
0.156784
 20
8.49178
 11
0.463516
 21
8.42657
  0
LINE
  8
0
 10
0.463516
 20
8.42657
 11
0.75
 21
8.29903
  0
LINE
  8
0
 10
0.75
 20
8.29903
 11
1.00369
 21
8.11472
  0
LINE
  8
0
 10
1.00369
 20
8.11472
 11
1.21352
 21
7.88167
  0
LINE
  8
0
 10
1.21352
 20
7.88167
 11
1.37032
 21
7.61009
  0
LINE
  8
0
 10
1.37032
 20
7.61009
 11
1.46721
 21
7.31186
  0
LINE
  8
0
 10
1.46721
 20
7.31186
 11
1.5
 21
7
  0
LINE
  8
0
 10
1.5
 20
7
 11
1.46721
 21
6.68813
  0
LINE
  8
0
 10
1.46721
 20
6.68813
 11
1.37032
 21
6.38989
  0
LINE
  8
0
 10
1.37032
 20
6.38989
 11
1.21352
 21
6.11832
  0
LINE
  8
0
 10
1.21352
 20
6.11832
 11
1.00369
 21
5.88527
  0
LINE
  8
0
 10
1.00369
 20
5.88527
 11
0.75
 21
5.70096
  0
LINE
  8
0
 10
0.75
 20
5.70096
 11
0.463516
 21
5.57341
  0
LINE
  8
0
 10
0.463516
 20
5.57341
 11
0.156784
 21
5.50821
  0
LINE
  8
0
 10
0.156784
 20
5.50821
 11
-0.156784
 21
5.50821
  0
ENDSEC
  0
SECTION
  2
OBJECTS
  0
DICTIONARY
  0
ENDSEC
  0
EOF
