  0
SECTION
  2
BLOCKS
  0
ENDSEC
  0
SECTION
  2
ENTITIES
  0
LINE
  8
0
 10
102.5
 20
-33
 11
102.5
 21
-7
  0
LINE
  8
0
 10
102.5
 20
-7
 11
95
 21
0
  0
LINE
  8
0
 10
95
 20
0
 11
64
 21
0
  0
LINE
  8
0
 10
64
 20
0
 11
52
 21
-11.5
  0
LINE
  8
0
 10
52
 20
-11.5
 11
-52
 21
-11.5
  0
LINE
  8
0
 10
-52
 20
-11.5
 11
-64
 21
0
  0
LINE
  8
0
 10
-64
 20
0
 11
-95
 21
0
  0
LINE
  8
0
 10
-95
 20
0
 11
-102.5
 21
-7
  0
LINE
  8
0
 10
-102.5
 20
-7
 11
-102.5
 21
-33
  0
LINE
  8
0
 10
-102.5
 20
-33
 11
-92.5
 21
-50
  0
LINE
  8
0
 10
-92.5
 20
-50
 11
92.5
 21
-50
  0
LINE
  8
0
 10
92.5
 20
-50
 11
102.5
 21
-33
  0
LINE
  8
0
 10
96.3387
 20
-12.3863
 11
95.8275
 21
-12.2776
  0
LINE
  8
0
 10
95.8275
 20
-12.2776
 11
95.35
 21
-12.0651
  0
LINE
  8
0
 10
95.35
 20
-12.0651
 11
94.9272
 21
-11.7579
  0
LINE
  8
0
 10
94.9272
 20
-11.7579
 11
94.5775
 21
-11.3695
  0
LINE
  8
0
 10
94.5775
 20
-11.3695
 11
94.3161
 21
-10.9168
  0
LINE
  8
0
 10
94.3161
 20
-10.9168
 11
94.1546
 21
-10.4198
  0
LINE
  8
0
 10
94.1546
 20
-10.4198
 11
94.1
 21
-9.89999
  0
LINE
  8
0
 10
94.1
 20
-9.89999
 11
94.1546
 21
-9.38022
  0
LINE
  8
0
 10
94.1546
 20
-9.38022
 11
94.3161
 21
-8.88315
  0
LINE
  8
0
 10
94.3161
 20
-8.88315
 11
94.5775
 21
-8.43053
  0
LINE
  8
0
 10
94.5775
 20
-8.43053
 11
94.9272
 21
-8.04213
  0
LINE
  8
0
 10
94.9272
 20
-8.04213
 11
95.35
 21
-7.73492
  0
LINE
  8
0
 10
95.35
 20
-7.73492
 11
95.8275
 21
-7.52235
  0
LINE
  8
0
 10
95.8275
 20
-7.52235
 11
96.3387
 21
-7.41368
  0
LINE
  8
0
 10
96.3387
 20
-7.41368
 11
96.8613
 21
-7.41368
  0
LINE
  8
0
 10
96.8613
 20
-7.41368
 11
97.3725
 21
-7.52235
  0
LINE
  8
0
 10
97.3725
 20
-7.52235
 11
97.85
 21
-7.73492
  0
LINE
  8
0
 10
97.85
 20
-7.73492
 11
98.2728
 21
-8.04213
  0
LINE
  8
0
 10
98.2728
 20
-8.04213
 11
98.6225
 21
-8.43053
  0
LINE
  8
0
 10
98.6225
 20
-8.43053
 11
98.8839
 21
-8.88315
  0
LINE
  8
0
 10
98.8839
 20
-8.88315
 11
99.0454
 21
-9.38022
  0
LINE
  8
0
 10
99.0454
 20
-9.38022
 11
99.1
 21
-9.89999
  0
LINE
  8
0
 10
99.1
 20
-9.89999
 11
99.0454
 21
-10.4198
  0
LINE
  8
0
 10
99.0454
 20
-10.4198
 11
98.8839
 21
-10.9168
  0
LINE
  8
0
 10
98.8839
 20
-10.9168
 11
98.6225
 21
-11.3695
  0
LINE
  8
0
 10
98.6225
 20
-11.3695
 11
98.2728
 21
-11.7579
  0
LINE
  8
0
 10
98.2728
 20
-11.7579
 11
97.85
 21
-12.0651
  0
LINE
  8
0
 10
97.85
 20
-12.0651
 11
97.3725
 21
-12.2776
  0
LINE
  8
0
 10
97.3725
 20
-12.2776
 11
96.8613
 21
-12.3863
  0
LINE
  8
0
 10
96.8613
 20
-12.3863
 11
96.3387
 21
-12.3863
  0
LINE
  8
0
 10
73.1387
 20
-12.3863
 11
72.6275
 21
-12.2776
  0
LINE
  8
0
 10
72.6275
 20
-12.2776
 11
72.15
 21
-12.0651
  0
LINE
  8
0
 10
72.15
 20
-12.0651
 11
71.7272
 21
-11.7579
  0
LINE
  8
0
 10
71.7272
 20
-11.7579
 11
71.3775
 21
-11.3695
  0
LINE
  8
0
 10
71.3775
 20
-11.3695
 11
71.1161
 21
-10.9168
  0
LINE
  8
0
 10
71.1161
 20
-10.9168
 11
70.9546
 21
-10.4198
  0
LINE
  8
0
 10
70.9546
 20
-10.4198
 11
70.9
 21
-9.89999
  0
LINE
  8
0
 10
70.9
 20
-9.89999
 11
70.9546
 21
-9.38022
  0
LINE
  8
0
 10
70.9546
 20
-9.38022
 11
71.1161
 21
-8.88315
  0
LINE
  8
0
 10
71.1161
 20
-8.88315
 11
71.3775
 21
-8.43053
  0
LINE
  8
0
 10
71.3775
 20
-8.43053
 11
71.7272
 21
-8.04213
  0
LINE
  8
0
 10
71.7272
 20
-8.04213
 11
72.15
 21
-7.73492
  0
LINE
  8
0
 10
72.15
 20
-7.73492
 11
72.6275
 21
-7.52235
  0
LINE
  8
0
 10
72.6275
 20
-7.52235
 11
73.1387
 21
-7.41368
  0
LINE
  8
0
 10
73.1387
 20
-7.41368
 11
73.6613
 21
-7.41368
  0
LINE
  8
0
 10
73.6613
 20
-7.41368
 11
74.1725
 21
-7.52235
  0
LINE
  8
0
 10
74.1725
 20
-7.52235
 11
74.65
 21
-7.73492
  0
LINE
  8
0
 10
74.65
 20
-7.73492
 11
75.0728
 21
-8.04213
  0
LINE
  8
0
 10
75.0728
 20
-8.04213
 11
75.4225
 21
-8.43053
  0
LINE
  8
0
 10
75.4225
 20
-8.43053
 11
75.6839
 21
-8.88315
  0
LINE
  8
0
 10
75.6839
 20
-8.88315
 11
75.8454
 21
-9.38022
  0
LINE
  8
0
 10
75.8454
 20
-9.38022
 11
75.9
 21
-9.89999
  0
LINE
  8
0
 10
75.9
 20
-9.89999
 11
75.8454
 21
-10.4198
  0
LINE
  8
0
 10
75.8454
 20
-10.4198
 11
75.6839
 21
-10.9168
  0
LINE
  8
0
 10
75.6839
 20
-10.9168
 11
75.4225
 21
-11.3695
  0
LINE
  8
0
 10
75.4225
 20
-11.3695
 11
75.0728
 21
-11.7579
  0
LINE
  8
0
 10
75.0728
 20
-11.7579
 11
74.65
 21
-12.0651
  0
LINE
  8
0
 10
74.65
 20
-12.0651
 11
74.1725
 21
-12.2776
  0
LINE
  8
0
 10
74.1725
 20
-12.2776
 11
73.6613
 21
-12.3863
  0
LINE
  8
0
 10
73.6613
 20
-12.3863
 11
73.1387
 21
-12.3863
  0
LINE
  8
0
 10
-96.8613
 20
-12.3863
 11
-97.3725
 21
-12.2776
  0
LINE
  8
0
 10
-97.3725
 20
-12.2776
 11
-97.85
 21
-12.0651
  0
LINE
  8
0
 10
-97.85
 20
-12.0651
 11
-98.2728
 21
-11.7579
  0
LINE
  8
0
 10
-98.2728
 20
-11.7579
 11
-98.6225
 21
-11.3695
  0
LINE
  8
0
 10
-98.6225
 20
-11.3695
 11
-98.8839
 21
-10.9168
  0
LINE
  8
0
 10
-98.8839
 20
-10.9168
 11
-99.0454
 21
-10.4198
  0
LINE
  8
0
 10
-99.0454
 20
-10.4198
 11
-99.1
 21
-9.89999
  0
LINE
  8
0
 10
-99.1
 20
-9.89999
 11
-99.0454
 21
-9.38022
  0
LINE
  8
0
 10
-99.0454
 20
-9.38022
 11
-98.8839
 21
-8.88315
  0
LINE
  8
0
 10
-98.8839
 20
-8.88315
 11
-98.6225
 21
-8.43053
  0
LINE
  8
0
 10
-98.6225
 20
-8.43053
 11
-98.2728
 21
-8.04213
  0
LINE
  8
0
 10
-98.2728
 20
-8.04213
 11
-97.85
 21
-7.73492
  0
LINE
  8
0
 10
-97.85
 20
-7.73492
 11
-97.3725
 21
-7.52235
  0
LINE
  8
0
 10
-97.3725
 20
-7.52235
 11
-96.8613
 21
-7.41368
  0
LINE
  8
0
 10
-96.8613
 20
-7.41368
 11
-96.3387
 21
-7.41368
  0
LINE
  8
0
 10
-96.3387
 20
-7.41368
 11
-95.8275
 21
-7.52235
  0
LINE
  8
0
 10
-95.8275
 20
-7.52235
 11
-95.35
 21
-7.73492
  0
LINE
  8
0
 10
-95.35
 20
-7.73492
 11
-94.9272
 21
-8.04213
  0
LINE
  8
0
 10
-94.9272
 20
-8.04213
 11
-94.5775
 21
-8.43053
  0
LINE
  8
0
 10
-94.5775
 20
-8.43053
 11
-94.3161
 21
-8.88315
  0
LINE
  8
0
 10
-94.3161
 20
-8.88315
 11
-94.1546
 21
-9.38022
  0
LINE
  8
0
 10
-94.1546
 20
-9.38022
 11
-94.1
 21
-9.89999
  0
LINE
  8
0
 10
-94.1
 20
-9.89999
 11
-94.1546
 21
-10.4198
  0
LINE
  8
0
 10
-94.1546
 20
-10.4198
 11
-94.3161
 21
-10.9168
  0
LINE
  8
0
 10
-94.3161
 20
-10.9168
 11
-94.5775
 21
-11.3695
  0
LINE
  8
0
 10
-94.5775
 20
-11.3695
 11
-94.9272
 21
-11.7579
  0
LINE
  8
0
 10
-94.9272
 20
-11.7579
 11
-95.35
 21
-12.0651
  0
LINE
  8
0
 10
-95.35
 20
-12.0651
 11
-95.8275
 21
-12.2776
  0
LINE
  8
0
 10
-95.8275
 20
-12.2776
 11
-96.3387
 21
-12.3863
  0
LINE
  8
0
 10
-96.3387
 20
-12.3863
 11
-96.8613
 21
-12.3863
  0
LINE
  8
0
 10
-73.6613
 20
-12.3863
 11
-74.1725
 21
-12.2776
  0
LINE
  8
0
 10
-74.1725
 20
-12.2776
 11
-74.65
 21
-12.0651
  0
LINE
  8
0
 10
-74.65
 20
-12.0651
 11
-75.0728
 21
-11.7579
  0
LINE
  8
0
 10
-75.0728
 20
-11.7579
 11
-75.4225
 21
-11.3695
  0
LINE
  8
0
 10
-75.4225
 20
-11.3695
 11
-75.6839
 21
-10.9168
  0
LINE
  8
0
 10
-75.6839
 20
-10.9168
 11
-75.8454
 21
-10.4198
  0
LINE
  8
0
 10
-75.8454
 20
-10.4198
 11
-75.9
 21
-9.89999
  0
LINE
  8
0
 10
-75.9
 20
-9.89999
 11
-75.8454
 21
-9.38022
  0
LINE
  8
0
 10
-75.8454
 20
-9.38022
 11
-75.6839
 21
-8.88315
  0
LINE
  8
0
 10
-75.6839
 20
-8.88315
 11
-75.4225
 21
-8.43053
  0
LINE
  8
0
 10
-75.4225
 20
-8.43053
 11
-75.0728
 21
-8.04213
  0
LINE
  8
0
 10
-75.0728
 20
-8.04213
 11
-74.65
 21
-7.73492
  0
LINE
  8
0
 10
-74.65
 20
-7.73492
 11
-74.1725
 21
-7.52235
  0
LINE
  8
0
 10
-74.1725
 20
-7.52235
 11
-73.6613
 21
-7.41368
  0
LINE
  8
0
 10
-73.6613
 20
-7.41368
 11
-73.1387
 21
-7.41368
  0
LINE
  8
0
 10
-73.1387
 20
-7.41368
 11
-72.6275
 21
-7.52235
  0
LINE
  8
0
 10
-72.6275
 20
-7.52235
 11
-72.15
 21
-7.73492
  0
LINE
  8
0
 10
-72.15
 20
-7.73492
 11
-71.7272
 21
-8.04213
  0
LINE
  8
0
 10
-71.7272
 20
-8.04213
 11
-71.3775
 21
-8.43053
  0
LINE
  8
0
 10
-71.3775
 20
-8.43053
 11
-71.1161
 21
-8.88315
  0
LINE
  8
0
 10
-71.1161
 20
-8.88315
 11
-70.9546
 21
-9.38022
  0
LINE
  8
0
 10
-70.9546
 20
-9.38022
 11
-70.9
 21
-9.89999
  0
LINE
  8
0
 10
-70.9
 20
-9.89999
 11
-70.9546
 21
-10.4198
  0
LINE
  8
0
 10
-70.9546
 20
-10.4198
 11
-71.1161
 21
-10.9168
  0
LINE
  8
0
 10
-71.1161
 20
-10.9168
 11
-71.3775
 21
-11.3695
  0
LINE
  8
0
 10
-71.3775
 20
-11.3695
 11
-71.7272
 21
-11.7579
  0
LINE
  8
0
 10
-71.7272
 20
-11.7579
 11
-72.15
 21
-12.0651
  0
LINE
  8
0
 10
-72.15
 20
-12.0651
 11
-72.6275
 21
-12.2776
  0
LINE
  8
0
 10
-72.6275
 20
-12.2776
 11
-73.1387
 21
-12.3863
  0
LINE
  8
0
 10
-73.1387
 20
-12.3863
 11
-73.6613
 21
-12.3863
  0
LINE
  8
0
 10
-0.156784
 20
-21.4918
 11
-0.463516
 21
-21.4266
  0
LINE
  8
0
 10
-0.463516
 20
-21.4266
 11
-0.75
 21
-21.299
  0
LINE
  8
0
 10
-0.75
 20
-21.299
 11
-1.00369
 21
-21.1147
  0
LINE
  8
0
 10
-1.00369
 20
-21.1147
 11
-1.21352
 21
-20.8817
  0
LINE
  8
0
 10
-1.21352
 20
-20.8817
 11
-1.37032
 21
-20.6101
  0
LINE
  8
0
 10
-1.37032
 20
-20.6101
 11
-1.46721
 21
-20.3119
  0
LINE
  8
0
 10
-1.46721
 20
-20.3119
 11
-1.5
 21
-20
  0
LINE
  8
0
 10
-1.5
 20
-20
 11
-1.46721
 21
-19.6881
  0
LINE
  8
0
 10
-1.46721
 20
-19.6881
 11
-1.37032
 21
-19.3899
  0
LINE
  8
0
 10
-1.37032
 20
-19.3899
 11
-1.21352
 21
-19.1183
  0
LINE
  8
0
 10
-1.21352
 20
-19.1183
 11
-1.00369
 21
-18.8853
  0
LINE
  8
0
 10
-1.00369
 20
-18.8853
 11
-0.749985
 21
-18.701
  0
LINE
  8
0
 10
-0.749985
 20
-18.701
 11
-0.463516
 21
-18.5734
  0
LINE
  8
0
 10
-0.463516
 20
-18.5734
 11
-0.156784
 21
-18.5082
  0
LINE
  8
0
 10
-0.156784
 20
-18.5082
 11
0.156784
 21
-18.5082
  0
LINE
  8
0
 10
0.156784
 20
-18.5082
 11
0.463516
 21
-18.5734
  0
LINE
  8
0
 10
0.463516
 20
-18.5734
 11
0.75
 21
-18.701
  0
LINE
  8
0
 10
0.75
 20
-18.701
 11
1.00369
 21
-18.8853
  0
LINE
  8
0
 10
1.00369
 20
-18.8853
 11
1.21352
 21
-19.1183
  0
LINE
  8
0
 10
1.21352
 20
-19.1183
 11
1.37032
 21
-19.3899
  0
LINE
  8
0
 10
1.37032
 20
-19.3899
 11
1.46721
 21
-19.6881
  0
LINE
  8
0
 10
1.46721
 20
-19.6881
 11
1.5
 21
-20
  0
LINE
  8
0
 10
1.5
 20
-20
 11
1.46721
 21
-20.3119
  0
LINE
  8
0
 10
1.46721
 20
-20.3119
 11
1.37032
 21
-20.6101
  0
LINE
  8
0
 10
1.37032
 20
-20.6101
 11
1.21352
 21
-20.8817
  0
LINE
  8
0
 10
1.21352
 20
-20.8817
 11
1.00369
 21
-21.1147
  0
LINE
  8
0
 10
1.00369
 20
-21.1147
 11
0.75
 21
-21.299
  0
LINE
  8
0
 10
0.75
 20
-21.299
 11
0.463516
 21
-21.4266
  0
LINE
  8
0
 10
0.463516
 20
-21.4266
 11
0.156784
 21
-21.4918
  0
LINE
  8
0
 10
0.156784
 20
-21.4918
 11
-0.156784
 21
-21.4918
  0
LINE
  8
0
 10
-60.1725
 20
-22.641
 11
-60.5099
 21
-22.5692
  0
LINE
  8
0
 10
-60.5099
 20
-22.5692
 11
-60.825
 21
-22.4289
  0
LINE
  8
0
 10
-60.825
 20
-22.4289
 11
-61.1041
 21
-22.2262
  0
LINE
  8
0
 10
-61.1041
 20
-22.2262
 11
-61.3349
 21
-21.9698
  0
LINE
  8
0
 10
-61.3349
 20
-21.9698
 11
-61.5073
 21
-21.6711
  0
LINE
  8
0
 10
-61.5073
 20
-21.6711
 11
-61.6139
 21
-21.343
  0
LINE
  8
0
 10
-61.6139
 20
-21.343
 11
-61.65
 21
-21
  0
LINE
  8
0
 10
-61.65
 20
-21
 11
-61.6139
 21
-20.6569
  0
LINE
  8
0
 10
-61.6139
 20
-20.6569
 11
-61.5073
 21
-20.3289
  0
LINE
  8
0
 10
-61.5073
 20
-20.3289
 11
-61.3349
 21
-20.0302
  0
LINE
  8
0
 10
-61.3349
 20
-20.0302
 11
-61.1041
 21
-19.7738
  0
LINE
  8
0
 10
-61.1041
 20
-19.7738
 11
-60.825
 21
-19.571
  0
LINE
  8
0
 10
-60.825
 20
-19.571
 11
-60.5099
 21
-19.4308
  0
LINE
  8
0
 10
-60.5099
 20
-19.4308
 11
-60.1725
 21
-19.359
  0
LINE
  8
0
 10
-60.1725
 20
-19.359
 11
-59.8275
 21
-19.359
  0
LINE
  8
0
 10
-59.8275
 20
-19.359
 11
-59.4901
 21
-19.4308
  0
LINE
  8
0
 10
-59.4901
 20
-19.4308
 11
-59.175
 21
-19.571
  0
LINE
  8
0
 10
-59.175
 20
-19.571
 11
-58.8959
 21
-19.7738
  0
LINE
  8
0
 10
-58.8959
 20
-19.7738
 11
-58.6651
 21
-20.0302
  0
LINE
  8
0
 10
-58.6651
 20
-20.0302
 11
-58.4926
 21
-20.3289
  0
LINE
  8
0
 10
-58.4926
 20
-20.3289
 11
-58.386
 21
-20.6569
  0
LINE
  8
0
 10
-58.386
 20
-20.6569
 11
-58.35
 21
-21
  0
LINE
  8
0
 10
-58.35
 20
-21
 11
-58.386
 21
-21.343
  0
LINE
  8
0
 10
-58.386
 20
-21.343
 11
-58.4926
 21
-21.6711
  0
LINE
  8
0
 10
-58.4926
 20
-21.6711
 11
-58.6651
 21
-21.9698
  0
LINE
  8
0
 10
-58.6651
 20
-21.9698
 11
-58.8959
 21
-22.2262
  0
LINE
  8
0
 10
-58.8959
 20
-22.2262
 11
-59.175
 21
-22.4289
  0
LINE
  8
0
 10
-59.175
 20
-22.4289
 11
-59.4901
 21
-22.5692
  0
LINE
  8
0
 10
-59.4901
 20
-22.5692
 11
-59.8275
 21
-22.641
  0
LINE
  8
0
 10
-59.8275
 20
-22.641
 11
-60.1725
 21
-22.641
  0
LINE
  8
0
 10
59.8275
 20
-22.641
 11
59.4901
 21
-22.5692
  0
LINE
  8
0
 10
59.4901
 20
-22.5692
 11
59.175
 21
-22.4289
  0
LINE
  8
0
 10
59.175
 20
-22.4289
 11
58.8959
 21
-22.2262
  0
LINE
  8
0
 10
58.8959
 20
-22.2262
 11
58.6651
 21
-21.9698
  0
LINE
  8
0
 10
58.6651
 20
-21.9698
 11
58.4926
 21
-21.6711
  0
LINE
  8
0
 10
58.4926
 20
-21.6711
 11
58.386
 21
-21.343
  0
LINE
  8
0
 10
58.386
 20
-21.343
 11
58.35
 21
-21
  0
LINE
  8
0
 10
58.35
 20
-21
 11
58.386
 21
-20.6569
  0
LINE
  8
0
 10
58.386
 20
-20.6569
 11
58.4926
 21
-20.3289
  0
LINE
  8
0
 10
58.4926
 20
-20.3289
 11
58.6651
 21
-20.0302
  0
LINE
  8
0
 10
58.6651
 20
-20.0302
 11
58.8959
 21
-19.7738
  0
LINE
  8
0
 10
58.8959
 20
-19.7738
 11
59.175
 21
-19.571
  0
LINE
  8
0
 10
59.175
 20
-19.571
 11
59.4901
 21
-19.4308
  0
LINE
  8
0
 10
59.4901
 20
-19.4308
 11
59.8275
 21
-19.359
  0
LINE
  8
0
 10
59.8275
 20
-19.359
 11
60.1725
 21
-19.359
  0
LINE
  8
0
 10
60.1725
 20
-19.359
 11
60.5099
 21
-19.4308
  0
LINE
  8
0
 10
60.5099
 20
-19.4308
 11
60.825
 21
-19.571
  0
LINE
  8
0
 10
60.825
 20
-19.571
 11
61.1041
 21
-19.7738
  0
LINE
  8
0
 10
61.1041
 20
-19.7738
 11
61.3349
 21
-20.0302
  0
LINE
  8
0
 10
61.3349
 20
-20.0302
 11
61.5073
 21
-20.3289
  0
LINE
  8
0
 10
61.5073
 20
-20.3289
 11
61.6139
 21
-20.6569
  0
LINE
  8
0
 10
61.6139
 20
-20.6569
 11
61.65
 21
-21
  0
LINE
  8
0
 10
61.65
 20
-21
 11
61.6139
 21
-21.343
  0
LINE
  8
0
 10
61.6139
 20
-21.343
 11
61.5073
 21
-21.6711
  0
LINE
  8
0
 10
61.5073
 20
-21.6711
 11
61.3349
 21
-21.9698
  0
LINE
  8
0
 10
61.3349
 20
-21.9698
 11
61.1041
 21
-22.2262
  0
LINE
  8
0
 10
61.1041
 20
-22.2262
 11
60.825
 21
-22.4289
  0
LINE
  8
0
 10
60.825
 20
-22.4289
 11
60.5099
 21
-22.5692
  0
LINE
  8
0
 10
60.5099
 20
-22.5692
 11
60.1725
 21
-22.641
  0
LINE
  8
0
 10
60.1725
 20
-22.641
 11
59.8275
 21
-22.641
  0
LINE
  8
0
 10
-60.1725
 20
-33.641
 11
-60.5099
 21
-33.5692
  0
LINE
  8
0
 10
-60.5099
 20
-33.5692
 11
-60.825
 21
-33.4289
  0
LINE
  8
0
 10
-60.825
 20
-33.4289
 11
-61.1041
 21
-33.2262
  0
LINE
  8
0
 10
-61.1041
 20
-33.2262
 11
-61.3349
 21
-32.9698
  0
LINE
  8
0
 10
-61.3349
 20
-32.9698
 11
-61.5073
 21
-32.6711
  0
LINE
  8
0
 10
-61.5073
 20
-32.6711
 11
-61.6139
 21
-32.343
  0
LINE
  8
0
 10
-61.6139
 20
-32.343
 11
-61.65
 21
-32
  0
LINE
  8
0
 10
-61.65
 20
-32
 11
-61.6139
 21
-31.6569
  0
LINE
  8
0
 10
-61.6139
 20
-31.6569
 11
-61.5073
 21
-31.3289
  0
LINE
  8
0
 10
-61.5073
 20
-31.3289
 11
-61.3349
 21
-31.0302
  0
LINE
  8
0
 10
-61.3349
 20
-31.0302
 11
-61.1041
 21
-30.7738
  0
LINE
  8
0
 10
-61.1041
 20
-30.7738
 11
-60.825
 21
-30.571
  0
LINE
  8
0
 10
-60.825
 20
-30.571
 11
-60.5099
 21
-30.4308
  0
LINE
  8
0
 10
-60.5099
 20
-30.4308
 11
-60.1725
 21
-30.359
  0
LINE
  8
0
 10
-60.1725
 20
-30.359
 11
-59.8275
 21
-30.359
  0
LINE
  8
0
 10
-59.8275
 20
-30.359
 11
-59.4901
 21
-30.4308
  0
LINE
  8
0
 10
-59.4901
 20
-30.4308
 11
-59.175
 21
-30.571
  0
LINE
  8
0
 10
-59.175
 20
-30.571
 11
-58.8959
 21
-30.7738
  0
LINE
  8
0
 10
-58.8959
 20
-30.7738
 11
-58.6651
 21
-31.0302
  0
LINE
  8
0
 10
-58.6651
 20
-31.0302
 11
-58.4926
 21
-31.3289
  0
LINE
  8
0
 10
-58.4926
 20
-31.3289
 11
-58.386
 21
-31.6569
  0
LINE
  8
0
 10
-58.386
 20
-31.6569
 11
-58.35
 21
-32
  0
LINE
  8
0
 10
-58.35
 20
-32
 11
-58.386
 21
-32.343
  0
LINE
  8
0
 10
-58.386
 20
-32.343
 11
-58.4926
 21
-32.6711
  0
LINE
  8
0
 10
-58.4926
 20
-32.6711
 11
-58.6651
 21
-32.9698
  0
LINE
  8
0
 10
-58.6651
 20
-32.9698
 11
-58.8959
 21
-33.2262
  0
LINE
  8
0
 10
-58.8959
 20
-33.2262
 11
-59.175
 21
-33.4289
  0
LINE
  8
0
 10
-59.175
 20
-33.4289
 11
-59.4901
 21
-33.5692
  0
LINE
  8
0
 10
-59.4901
 20
-33.5692
 11
-59.8275
 21
-33.641
  0
LINE
  8
0
 10
-59.8275
 20
-33.641
 11
-60.1725
 21
-33.641
  0
LINE
  8
0
 10
59.8275
 20
-33.641
 11
59.4901
 21
-33.5692
  0
LINE
  8
0
 10
59.4901
 20
-33.5692
 11
59.175
 21
-33.4289
  0
LINE
  8
0
 10
59.175
 20
-33.4289
 11
58.8959
 21
-33.2262
  0
LINE
  8
0
 10
58.8959
 20
-33.2262
 11
58.6651
 21
-32.9698
  0
LINE
  8
0
 10
58.6651
 20
-32.9698
 11
58.4926
 21
-32.6711
  0
LINE
  8
0
 10
58.4926
 20
-32.6711
 11
58.386
 21
-32.343
  0
LINE
  8
0
 10
58.386
 20
-32.343
 11
58.35
 21
-32
  0
LINE
  8
0
 10
58.35
 20
-32
 11
58.386
 21
-31.6569
  0
LINE
  8
0
 10
58.386
 20
-31.6569
 11
58.4926
 21
-31.3289
  0
LINE
  8
0
 10
58.4926
 20
-31.3289
 11
58.6651
 21
-31.0302
  0
LINE
  8
0
 10
58.6651
 20
-31.0302
 11
58.8959
 21
-30.7738
  0
LINE
  8
0
 10
58.8959
 20
-30.7738
 11
59.175
 21
-30.571
  0
LINE
  8
0
 10
59.175
 20
-30.571
 11
59.4901
 21
-30.4308
  0
LINE
  8
0
 10
59.4901
 20
-30.4308
 11
59.8275
 21
-30.359
  0
LINE
  8
0
 10
59.8275
 20
-30.359
 11
60.1725
 21
-30.359
  0
LINE
  8
0
 10
60.1725
 20
-30.359
 11
60.5099
 21
-30.4308
  0
LINE
  8
0
 10
60.5099
 20
-30.4308
 11
60.825
 21
-30.571
  0
LINE
  8
0
 10
60.825
 20
-30.571
 11
61.1041
 21
-30.7738
  0
LINE
  8
0
 10
61.1041
 20
-30.7738
 11
61.3349
 21
-31.0302
  0
LINE
  8
0
 10
61.3349
 20
-31.0302
 11
61.5073
 21
-31.3289
  0
LINE
  8
0
 10
61.5073
 20
-31.3289
 11
61.6139
 21
-31.6569
  0
LINE
  8
0
 10
61.6139
 20
-31.6569
 11
61.65
 21
-32
  0
LINE
  8
0
 10
61.65
 20
-32
 11
61.6139
 21
-32.343
  0
LINE
  8
0
 10
61.6139
 20
-32.343
 11
61.5073
 21
-32.6711
  0
LINE
  8
0
 10
61.5073
 20
-32.6711
 11
61.3349
 21
-32.9698
  0
LINE
  8
0
 10
61.3349
 20
-32.9698
 11
61.1041
 21
-33.2262
  0
LINE
  8
0
 10
61.1041
 20
-33.2262
 11
60.825
 21
-33.4289
  0
LINE
  8
0
 10
60.825
 20
-33.4289
 11
60.5099
 21
-33.5692
  0
LINE
  8
0
 10
60.5099
 20
-33.5692
 11
60.1725
 21
-33.641
  0
LINE
  8
0
 10
60.1725
 20
-33.641
 11
59.8275
 21
-33.641
  0
LINE
  8
0
 10
-96.8613
 20
-35.5863
 11
-97.3725
 21
-35.4776
  0
LINE
  8
0
 10
-97.3725
 20
-35.4776
 11
-97.85
 21
-35.2651
  0
LINE
  8
0
 10
-97.85
 20
-35.2651
 11
-98.2728
 21
-34.9579
  0
LINE
  8
0
 10
-98.2728
 20
-34.9579
 11
-98.6225
 21
-34.5695
  0
LINE
  8
0
 10
-98.6225
 20
-34.5695
 11
-98.8839
 21
-34.1168
  0
LINE
  8
0
 10
-98.8839
 20
-34.1168
 11
-99.0454
 21
-33.6198
  0
LINE
  8
0
 10
-99.0454
 20
-33.6198
 11
-99.1
 21
-33.1
  0
LINE
  8
0
 10
-99.1
 20
-33.1
 11
-99.0454
 21
-32.5802
  0
LINE
  8
0
 10
-99.0454
 20
-32.5802
 11
-98.8839
 21
-32.0831
  0
LINE
  8
0
 10
-98.8839
 20
-32.0831
 11
-98.6225
 21
-31.6305
  0
LINE
  8
0
 10
-98.6225
 20
-31.6305
 11
-98.2728
 21
-31.2421
  0
LINE
  8
0
 10
-98.2728
 20
-31.2421
 11
-97.85
 21
-30.9349
  0
LINE
  8
0
 10
-97.85
 20
-30.9349
 11
-97.3725
 21
-30.7224
  0
LINE
  8
0
 10
-97.3725
 20
-30.7224
 11
-96.8613
 21
-30.6137
  0
LINE
  8
0
 10
-96.8613
 20
-30.6137
 11
-96.3387
 21
-30.6137
  0
LINE
  8
0
 10
-96.3387
 20
-30.6137
 11
-95.8275
 21
-30.7224
  0
LINE
  8
0
 10
-95.8275
 20
-30.7224
 11
-95.35
 21
-30.9349
  0
LINE
  8
0
 10
-95.35
 20
-30.9349
 11
-94.9272
 21
-31.2421
  0
LINE
  8
0
 10
-94.9272
 20
-31.2421
 11
-94.5775
 21
-31.6305
  0
LINE
  8
0
 10
-94.5775
 20
-31.6305
 11
-94.3161
 21
-32.0831
  0
LINE
  8
0
 10
-94.3161
 20
-32.0831
 11
-94.1546
 21
-32.5802
  0
LINE
  8
0
 10
-94.1546
 20
-32.5802
 11
-94.1
 21
-33.1
  0
LINE
  8
0
 10
-94.1
 20
-33.1
 11
-94.1546
 21
-33.6198
  0
LINE
  8
0
 10
-94.1546
 20
-33.6198
 11
-94.3161
 21
-34.1168
  0
LINE
  8
0
 10
-94.3161
 20
-34.1168
 11
-94.5775
 21
-34.5695
  0
LINE
  8
0
 10
-94.5775
 20
-34.5695
 11
-94.9272
 21
-34.9579
  0
LINE
  8
0
 10
-94.9272
 20
-34.9579
 11
-95.35
 21
-35.2651
  0
LINE
  8
0
 10
-95.35
 20
-35.2651
 11
-95.8275
 21
-35.4776
  0
LINE
  8
0
 10
-95.8275
 20
-35.4776
 11
-96.3387
 21
-35.5863
  0
LINE
  8
0
 10
-96.3387
 20
-35.5863
 11
-96.8613
 21
-35.5863
  0
LINE
  8
0
 10
-73.6613
 20
-35.5863
 11
-74.1725
 21
-35.4776
  0
LINE
  8
0
 10
-74.1725
 20
-35.4776
 11
-74.65
 21
-35.2651
  0
LINE
  8
0
 10
-74.65
 20
-35.2651
 11
-75.0728
 21
-34.9579
  0
LINE
  8
0
 10
-75.0728
 20
-34.9579
 11
-75.4225
 21
-34.5695
  0
LINE
  8
0
 10
-75.4225
 20
-34.5695
 11
-75.6839
 21
-34.1168
  0
LINE
  8
0
 10
-75.6839
 20
-34.1168
 11
-75.8454
 21
-33.6198
  0
LINE
  8
0
 10
-75.8454
 20
-33.6198
 11
-75.9
 21
-33.1
  0
LINE
  8
0
 10
-75.9
 20
-33.1
 11
-75.8454
 21
-32.5802
  0
LINE
  8
0
 10
-75.8454
 20
-32.5802
 11
-75.6839
 21
-32.0831
  0
LINE
  8
0
 10
-75.6839
 20
-32.0831
 11
-75.4225
 21
-31.6305
  0
LINE
  8
0
 10
-75.4225
 20
-31.6305
 11
-75.0728
 21
-31.2421
  0
LINE
  8
0
 10
-75.0728
 20
-31.2421
 11
-74.65
 21
-30.9349
  0
LINE
  8
0
 10
-74.65
 20
-30.9349
 11
-74.1725
 21
-30.7224
  0
LINE
  8
0
 10
-74.1725
 20
-30.7224
 11
-73.6613
 21
-30.6137
  0
LINE
  8
0
 10
-73.6613
 20
-30.6137
 11
-73.1387
 21
-30.6137
  0
LINE
  8
0
 10
-73.1387
 20
-30.6137
 11
-72.6275
 21
-30.7224
  0
LINE
  8
0
 10
-72.6275
 20
-30.7224
 11
-72.15
 21
-30.9349
  0
LINE
  8
0
 10
-72.15
 20
-30.9349
 11
-71.7272
 21
-31.2421
  0
LINE
  8
0
 10
-71.7272
 20
-31.2421
 11
-71.3775
 21
-31.6305
  0
LINE
  8
0
 10
-71.3775
 20
-31.6305
 11
-71.1161
 21
-32.0831
  0
LINE
  8
0
 10
-71.1161
 20
-32.0831
 11
-70.9546
 21
-32.5802
  0
LINE
  8
0
 10
-70.9546
 20
-32.5802
 11
-70.9
 21
-33.1
  0
LINE
  8
0
 10
-70.9
 20
-33.1
 11
-70.9546
 21
-33.6198
  0
LINE
  8
0
 10
-70.9546
 20
-33.6198
 11
-71.1161
 21
-34.1168
  0
LINE
  8
0
 10
-71.1161
 20
-34.1168
 11
-71.3775
 21
-34.5695
  0
LINE
  8
0
 10
-71.3775
 20
-34.5695
 11
-71.7272
 21
-34.9579
  0
LINE
  8
0
 10
-71.7272
 20
-34.9579
 11
-72.15
 21
-35.2651
  0
LINE
  8
0
 10
-72.15
 20
-35.2651
 11
-72.6275
 21
-35.4776
  0
LINE
  8
0
 10
-72.6275
 20
-35.4776
 11
-73.1387
 21
-35.5863
  0
LINE
  8
0
 10
-73.1387
 20
-35.5863
 11
-73.6613
 21
-35.5863
  0
LINE
  8
0
 10
73.1387
 20
-35.5863
 11
72.6275
 21
-35.4776
  0
LINE
  8
0
 10
72.6275
 20
-35.4776
 11
72.15
 21
-35.2651
  0
LINE
  8
0
 10
72.15
 20
-35.2651
 11
71.7272
 21
-34.9579
  0
LINE
  8
0
 10
71.7272
 20
-34.9579
 11
71.3775
 21
-34.5695
  0
LINE
  8
0
 10
71.3775
 20
-34.5695
 11
71.1161
 21
-34.1168
  0
LINE
  8
0
 10
71.1161
 20
-34.1168
 11
70.9546
 21
-33.6198
  0
LINE
  8
0
 10
70.9546
 20
-33.6198
 11
70.9
 21
-33.1
  0
LINE
  8
0
 10
70.9
 20
-33.1
 11
70.9546
 21
-32.5802
  0
LINE
  8
0
 10
70.9546
 20
-32.5802
 11
71.1161
 21
-32.0831
  0
LINE
  8
0
 10
71.1161
 20
-32.0831
 11
71.3775
 21
-31.6305
  0
LINE
  8
0
 10
71.3775
 20
-31.6305
 11
71.7272
 21
-31.2421
  0
LINE
  8
0
 10
71.7272
 20
-31.2421
 11
72.15
 21
-30.9349
  0
LINE
  8
0
 10
72.15
 20
-30.9349
 11
72.6275
 21
-30.7224
  0
LINE
  8
0
 10
72.6275
 20
-30.7224
 11
73.1387
 21
-30.6137
  0
LINE
  8
0
 10
73.1387
 20
-30.6137
 11
73.6613
 21
-30.6137
  0
LINE
  8
0
 10
73.6613
 20
-30.6137
 11
74.1725
 21
-30.7224
  0
LINE
  8
0
 10
74.1725
 20
-30.7224
 11
74.65
 21
-30.9349
  0
LINE
  8
0
 10
74.65
 20
-30.9349
 11
75.0728
 21
-31.2421
  0
LINE
  8
0
 10
75.0728
 20
-31.2421
 11
75.4225
 21
-31.6305
  0
LINE
  8
0
 10
75.4225
 20
-31.6305
 11
75.6839
 21
-32.0831
  0
LINE
  8
0
 10
75.6839
 20
-32.0831
 11
75.8454
 21
-32.5802
  0
LINE
  8
0
 10
75.8454
 20
-32.5802
 11
75.9
 21
-33.1
  0
LINE
  8
0
 10
75.9
 20
-33.1
 11
75.8454
 21
-33.6198
  0
LINE
  8
0
 10
75.8454
 20
-33.6198
 11
75.6839
 21
-34.1168
  0
LINE
  8
0
 10
75.6839
 20
-34.1168
 11
75.4225
 21
-34.5695
  0
LINE
  8
0
 10
75.4225
 20
-34.5695
 11
75.0728
 21
-34.9579
  0
LINE
  8
0
 10
75.0728
 20
-34.9579
 11
74.65
 21
-35.2651
  0
LINE
  8
0
 10
74.65
 20
-35.2651
 11
74.1725
 21
-35.4776
  0
LINE
  8
0
 10
74.1725
 20
-35.4776
 11
73.6613
 21
-35.5863
  0
LINE
  8
0
 10
73.6613
 20
-35.5863
 11
73.1387
 21
-35.5863
  0
LINE
  8
0
 10
96.3387
 20
-35.5863
 11
95.8275
 21
-35.4776
  0
LINE
  8
0
 10
95.8275
 20
-35.4776
 11
95.35
 21
-35.2651
  0
LINE
  8
0
 10
95.35
 20
-35.2651
 11
94.9272
 21
-34.9579
  0
LINE
  8
0
 10
94.9272
 20
-34.9579
 11
94.5775
 21
-34.5695
  0
LINE
  8
0
 10
94.5775
 20
-34.5695
 11
94.3161
 21
-34.1168
  0
LINE
  8
0
 10
94.3161
 20
-34.1168
 11
94.1546
 21
-33.6198
  0
LINE
  8
0
 10
94.1546
 20
-33.6198
 11
94.1
 21
-33.1
  0
LINE
  8
0
 10
94.1
 20
-33.1
 11
94.1546
 21
-32.5802
  0
LINE
  8
0
 10
94.1546
 20
-32.5802
 11
94.3161
 21
-32.0831
  0
LINE
  8
0
 10
94.3161
 20
-32.0831
 11
94.5775
 21
-31.6305
  0
LINE
  8
0
 10
94.5775
 20
-31.6305
 11
94.9272
 21
-31.2421
  0
LINE
  8
0
 10
94.9272
 20
-31.2421
 11
95.35
 21
-30.9349
  0
LINE
  8
0
 10
95.35
 20
-30.9349
 11
95.8275
 21
-30.7224
  0
LINE
  8
0
 10
95.8275
 20
-30.7224
 11
96.3387
 21
-30.6137
  0
LINE
  8
0
 10
96.3387
 20
-30.6137
 11
96.8613
 21
-30.6137
  0
LINE
  8
0
 10
96.8613
 20
-30.6137
 11
97.3725
 21
-30.7224
  0
LINE
  8
0
 10
97.3725
 20
-30.7224
 11
97.85
 21
-30.9349
  0
LINE
  8
0
 10
97.85
 20
-30.9349
 11
98.2728
 21
-31.2421
  0
LINE
  8
0
 10
98.2728
 20
-31.2421
 11
98.6225
 21
-31.6305
  0
LINE
  8
0
 10
98.6225
 20
-31.6305
 11
98.8839
 21
-32.0831
  0
LINE
  8
0
 10
98.8839
 20
-32.0831
 11
99.0454
 21
-32.5802
  0
LINE
  8
0
 10
99.0454
 20
-32.5802
 11
99.1
 21
-33.1
  0
LINE
  8
0
 10
99.1
 20
-33.1
 11
99.0454
 21
-33.6198
  0
LINE
  8
0
 10
99.0454
 20
-33.6198
 11
98.8839
 21
-34.1168
  0
LINE
  8
0
 10
98.8839
 20
-34.1168
 11
98.6225
 21
-34.5695
  0
LINE
  8
0
 10
98.6225
 20
-34.5695
 11
98.2728
 21
-34.9579
  0
LINE
  8
0
 10
98.2728
 20
-34.9579
 11
97.85
 21
-35.2651
  0
LINE
  8
0
 10
97.85
 20
-35.2651
 11
97.3725
 21
-35.4776
  0
LINE
  8
0
 10
97.3725
 20
-35.4776
 11
96.8613
 21
-35.5863
  0
LINE
  8
0
 10
96.8613
 20
-35.5863
 11
96.3387
 21
-35.5863
  0
LINE
  8
0
 10
79.3432
 20
-41.4918
 11
79.0365
 21
-41.4266
  0
LINE
  8
0
 10
79.0365
 20
-41.4266
 11
78.75
 21
-41.299
  0
LINE
  8
0
 10
78.75
 20
-41.299
 11
78.4963
 21
-41.1147
  0
LINE
  8
0
 10
78.4963
 20
-41.1147
 11
78.2865
 21
-40.8817
  0
LINE
  8
0
 10
78.2865
 20
-40.8817
 11
78.1297
 21
-40.6101
  0
LINE
  8
0
 10
78.1297
 20
-40.6101
 11
78.0328
 21
-40.3119
  0
LINE
  8
0
 10
78.0328
 20
-40.3119
 11
78
 21
-40
  0
LINE
  8
0
 10
78
 20
-40
 11
78.0328
 21
-39.6881
  0
LINE
  8
0
 10
78.0328
 20
-39.6881
 11
78.1297
 21
-39.3899
  0
LINE
  8
0
 10
78.1297
 20
-39.3899
 11
78.2865
 21
-39.1183
  0
LINE
  8
0
 10
78.2865
 20
-39.1183
 11
78.4963
 21
-38.8853
  0
LINE
  8
0
 10
78.4963
 20
-38.8853
 11
78.75
 21
-38.701
  0
LINE
  8
0
 10
78.75
 20
-38.701
 11
79.0365
 21
-38.5734
  0
LINE
  8
0
 10
79.0365
 20
-38.5734
 11
79.3432
 21
-38.5082
  0
LINE
  8
0
 10
79.3432
 20
-38.5082
 11
79.6568
 21
-38.5082
  0
LINE
  8
0
 10
79.6568
 20
-38.5082
 11
79.9635
 21
-38.5734
  0
LINE
  8
0
 10
79.9635
 20
-38.5734
 11
80.25
 21
-38.701
  0
LINE
  8
0
 10
80.25
 20
-38.701
 11
80.5037
 21
-38.8853
  0
LINE
  8
0
 10
80.5037
 20
-38.8853
 11
80.7135
 21
-39.1183
  0
LINE
  8
0
 10
80.7135
 20
-39.1183
 11
80.8703
 21
-39.3899
  0
LINE
  8
0
 10
80.8703
 20
-39.3899
 11
80.9672
 21
-39.6881
  0
LINE
  8
0
 10
80.9672
 20
-39.6881
 11
81
 21
-40
  0
LINE
  8
0
 10
81
 20
-40
 11
80.9672
 21
-40.3119
  0
LINE
  8
0
 10
80.9672
 20
-40.3119
 11
80.8703
 21
-40.6101
  0
LINE
  8
0
 10
80.8703
 20
-40.6101
 11
80.7135
 21
-40.8817
  0
LINE
  8
0
 10
80.7135
 20
-40.8817
 11
80.5037
 21
-41.1147
  0
LINE
  8
0
 10
80.5037
 20
-41.1147
 11
80.25
 21
-41.299
  0
LINE
  8
0
 10
80.25
 20
-41.299
 11
79.9635
 21
-41.4266
  0
LINE
  8
0
 10
79.9635
 20
-41.4266
 11
79.6568
 21
-41.4918
  0
LINE
  8
0
 10
79.6568
 20
-41.4918
 11
79.3432
 21
-41.4918
  0
LINE
  8
0
 10
90.3432
 20
-41.4918
 11
90.0365
 21
-41.4266
  0
LINE
  8
0
 10
90.0365
 20
-41.4266
 11
89.75
 21
-41.299
  0
LINE
  8
0
 10
89.75
 20
-41.299
 11
89.4963
 21
-41.1147
  0
LINE
  8
0
 10
89.4963
 20
-41.1147
 11
89.2865
 21
-40.8817
  0
LINE
  8
0
 10
89.2865
 20
-40.8817
 11
89.1297
 21
-40.6101
  0
LINE
  8
0
 10
89.1297
 20
-40.6101
 11
89.0328
 21
-40.3119
  0
LINE
  8
0
 10
89.0328
 20
-40.3119
 11
89
 21
-40
  0
LINE
  8
0
 10
89
 20
-40
 11
89.0328
 21
-39.6881
  0
LINE
  8
0
 10
89.0328
 20
-39.6881
 11
89.1297
 21
-39.3899
  0
LINE
  8
0
 10
89.1297
 20
-39.3899
 11
89.2865
 21
-39.1183
  0
LINE
  8
0
 10
89.2865
 20
-39.1183
 11
89.4963
 21
-38.8853
  0
LINE
  8
0
 10
89.4963
 20
-38.8853
 11
89.75
 21
-38.701
  0
LINE
  8
0
 10
89.75
 20
-38.701
 11
90.0365
 21
-38.5734
  0
LINE
  8
0
 10
90.0365
 20
-38.5734
 11
90.3432
 21
-38.5082
  0
LINE
  8
0
 10
90.3432
 20
-38.5082
 11
90.6568
 21
-38.5082
  0
LINE
  8
0
 10
90.6568
 20
-38.5082
 11
90.9635
 21
-38.5734
  0
LINE
  8
0
 10
90.9635
 20
-38.5734
 11
91.25
 21
-38.701
  0
LINE
  8
0
 10
91.25
 20
-38.701
 11
91.5037
 21
-38.8853
  0
LINE
  8
0
 10
91.5037
 20
-38.8853
 11
91.7135
 21
-39.1183
  0
LINE
  8
0
 10
91.7135
 20
-39.1183
 11
91.8703
 21
-39.3899
  0
LINE
  8
0
 10
91.8703
 20
-39.3899
 11
91.9672
 21
-39.6881
  0
LINE
  8
0
 10
91.9672
 20
-39.6881
 11
92
 21
-40
  0
LINE
  8
0
 10
92
 20
-40
 11
91.9672
 21
-40.3119
  0
LINE
  8
0
 10
91.9672
 20
-40.3119
 11
91.8703
 21
-40.6101
  0
LINE
  8
0
 10
91.8703
 20
-40.6101
 11
91.7135
 21
-40.8817
  0
LINE
  8
0
 10
91.7135
 20
-40.8817
 11
91.5037
 21
-41.1147
  0
LINE
  8
0
 10
91.5037
 20
-41.1147
 11
91.25
 21
-41.299
  0
LINE
  8
0
 10
91.25
 20
-41.299
 11
90.9635
 21
-41.4266
  0
LINE
  8
0
 10
90.9635
 20
-41.4266
 11
90.6568
 21
-41.4918
  0
LINE
  8
0
 10
90.6568
 20
-41.4918
 11
90.3432
 21
-41.4918
  0
LINE
  8
0
 10
-79.6568
 20
-41.4918
 11
-79.9635
 21
-41.4266
  0
LINE
  8
0
 10
-79.9635
 20
-41.4266
 11
-80.25
 21
-41.299
  0
LINE
  8
0
 10
-80.25
 20
-41.299
 11
-80.5037
 21
-41.1147
  0
LINE
  8
0
 10
-80.5037
 20
-41.1147
 11
-80.7135
 21
-40.8817
  0
LINE
  8
0
 10
-80.7135
 20
-40.8817
 11
-80.8703
 21
-40.6101
  0
LINE
  8
0
 10
-80.8703
 20
-40.6101
 11
-80.9672
 21
-40.3119
  0
LINE
  8
0
 10
-80.9672
 20
-40.3119
 11
-81
 21
-40
  0
LINE
  8
0
 10
-81
 20
-40
 11
-80.9672
 21
-39.6881
  0
LINE
  8
0
 10
-80.9672
 20
-39.6881
 11
-80.8703
 21
-39.3899
  0
LINE
  8
0
 10
-80.8703
 20
-39.3899
 11
-80.7135
 21
-39.1183
  0
LINE
  8
0
 10
-80.7135
 20
-39.1183
 11
-80.5037
 21
-38.8853
  0
LINE
  8
0
 10
-80.5037
 20
-38.8853
 11
-80.25
 21
-38.701
  0
LINE
  8
0
 10
-80.25
 20
-38.701
 11
-79.9635
 21
-38.5734
  0
LINE
  8
0
 10
-79.9635
 20
-38.5734
 11
-79.6568
 21
-38.5082
  0
LINE
  8
0
 10
-79.6568
 20
-38.5082
 11
-79.3432
 21
-38.5082
  0
LINE
  8
0
 10
-79.3432
 20
-38.5082
 11
-79.0365
 21
-38.5734
  0
LINE
  8
0
 10
-79.0365
 20
-38.5734
 11
-78.75
 21
-38.701
  0
LINE
  8
0
 10
-78.75
 20
-38.701
 11
-78.4963
 21
-38.8853
  0
LINE
  8
0
 10
-78.4963
 20
-38.8853
 11
-78.2865
 21
-39.1183
  0
LINE
  8
0
 10
-78.2865
 20
-39.1183
 11
-78.1297
 21
-39.3899
  0
LINE
  8
0
 10
-78.1297
 20
-39.3899
 11
-78.0328
 21
-39.6881
  0
LINE
  8
0
 10
-78.0328
 20
-39.6881
 11
-78
 21
-40
  0
LINE
  8
0
 10
-78
 20
-40
 11
-78.0328
 21
-40.3119
  0
LINE
  8
0
 10
-78.0328
 20
-40.3119
 11
-78.1297
 21
-40.6101
  0
LINE
  8
0
 10
-78.1297
 20
-40.6101
 11
-78.2865
 21
-40.8817
  0
LINE
  8
0
 10
-78.2865
 20
-40.8817
 11
-78.4963
 21
-41.1147
  0
LINE
  8
0
 10
-78.4963
 20
-41.1147
 11
-78.75
 21
-41.299
  0
LINE
  8
0
 10
-78.75
 20
-41.299
 11
-79.0365
 21
-41.4266
  0
LINE
  8
0
 10
-79.0365
 20
-41.4266
 11
-79.3432
 21
-41.4918
  0
LINE
  8
0
 10
-79.3432
 20
-41.4918
 11
-79.6568
 21
-41.4918
  0
LINE
  8
0
 10
-90.6568
 20
-41.4918
 11
-90.9635
 21
-41.4266
  0
LINE
  8
0
 10
-90.9635
 20
-41.4266
 11
-91.25
 21
-41.299
  0
LINE
  8
0
 10
-91.25
 20
-41.299
 11
-91.5037
 21
-41.1147
  0
LINE
  8
0
 10
-91.5037
 20
-41.1147
 11
-91.7135
 21
-40.8817
  0
LINE
  8
0
 10
-91.7135
 20
-40.8817
 11
-91.8703
 21
-40.6101
  0
LINE
  8
0
 10
-91.8703
 20
-40.6101
 11
-91.9672
 21
-40.3119
  0
LINE
  8
0
 10
-91.9672
 20
-40.3119
 11
-92
 21
-40
  0
LINE
  8
0
 10
-92
 20
-40
 11
-91.9672
 21
-39.6881
  0
LINE
  8
0
 10
-91.9672
 20
-39.6881
 11
-91.8703
 21
-39.3899
  0
LINE
  8
0
 10
-91.8703
 20
-39.3899
 11
-91.7135
 21
-39.1183
  0
LINE
  8
0
 10
-91.7135
 20
-39.1183
 11
-91.5037
 21
-38.8853
  0
LINE
  8
0
 10
-91.5037
 20
-38.8853
 11
-91.25
 21
-38.701
  0
LINE
  8
0
 10
-91.25
 20
-38.701
 11
-90.9635
 21
-38.5734
  0
LINE
  8
0
 10
-90.9635
 20
-38.5734
 11
-90.6568
 21
-38.5082
  0
LINE
  8
0
 10
-90.6568
 20
-38.5082
 11
-90.3432
 21
-38.5082
  0
LINE
  8
0
 10
-90.3432
 20
-38.5082
 11
-90.0365
 21
-38.5734
  0
LINE
  8
0
 10
-90.0365
 20
-38.5734
 11
-89.75
 21
-38.701
  0
LINE
  8
0
 10
-89.75
 20
-38.701
 11
-89.4963
 21
-38.8853
  0
LINE
  8
0
 10
-89.4963
 20
-38.8853
 11
-89.2865
 21
-39.1183
  0
LINE
  8
0
 10
-89.2865
 20
-39.1183
 11
-89.1297
 21
-39.3899
  0
LINE
  8
0
 10
-89.1297
 20
-39.3899
 11
-89.0328
 21
-39.6881
  0
LINE
  8
0
 10
-89.0328
 20
-39.6881
 11
-89
 21
-40
  0
LINE
  8
0
 10
-89
 20
-40
 11
-89.0328
 21
-40.3119
  0
LINE
  8
0
 10
-89.0328
 20
-40.3119
 11
-89.1297
 21
-40.6101
  0
LINE
  8
0
 10
-89.1297
 20
-40.6101
 11
-89.2865
 21
-40.8817
  0
LINE
  8
0
 10
-89.2865
 20
-40.8817
 11
-89.4963
 21
-41.1147
  0
LINE
  8
0
 10
-89.4963
 20
-41.1147
 11
-89.75
 21
-41.299
  0
LINE
  8
0
 10
-89.75
 20
-41.299
 11
-90.0365
 21
-41.4266
  0
LINE
  8
0
 10
-90.0365
 20
-41.4266
 11
-90.3432
 21
-41.4918
  0
LINE
  8
0
 10
-90.3432
 20
-41.4918
 11
-90.6568
 21
-41.4918
  0
LINE
  8
0
 10
-0.156784
 20
-47.4918
 11
-0.463516
 21
-47.4266
  0
LINE
  8
0
 10
-0.463516
 20
-47.4266
 11
-0.75
 21
-47.299
  0
LINE
  8
0
 10
-0.75
 20
-47.299
 11
-1.00369
 21
-47.1147
  0
LINE
  8
0
 10
-1.00369
 20
-47.1147
 11
-1.21352
 21
-46.8817
  0
LINE
  8
0
 10
-1.21352
 20
-46.8817
 11
-1.37032
 21
-46.6101
  0
LINE
  8
0
 10
-1.37032
 20
-46.6101
 11
-1.46721
 21
-46.3119
  0
LINE
  8
0
 10
-1.46721
 20
-46.3119
 11
-1.5
 21
-46
  0
LINE
  8
0
 10
-1.5
 20
-46
 11
-1.46721
 21
-45.6881
  0
LINE
  8
0
 10
-1.46721
 20
-45.6881
 11
-1.37032
 21
-45.3899
  0
LINE
  8
0
 10
-1.37032
 20
-45.3899
 11
-1.21352
 21
-45.1183
  0
LINE
  8
0
 10
-1.21352
 20
-45.1183
 11
-1.00369
 21
-44.8853
  0
LINE
  8
0
 10
-1.00369
 20
-44.8853
 11
-0.749985
 21
-44.701
  0
LINE
  8
0
 10
-0.749985
 20
-44.701
 11
-0.463516
 21
-44.5734
  0
LINE
  8
0
 10
-0.463516
 20
-44.5734
 11
-0.156784
 21
-44.5082
  0
LINE
  8
0
 10
-0.156784
 20
-44.5082
 11
0.156784
 21
-44.5082
  0
LINE
  8
0
 10
0.156784
 20
-44.5082
 11
0.463516
 21
-44.5734
  0
LINE
  8
0
 10
0.463516
 20
-44.5734
 11
0.75
 21
-44.701
  0
LINE
  8
0
 10
0.75
 20
-44.701
 11
1.00369
 21
-44.8853
  0
LINE
  8
0
 10
1.00369
 20
-44.8853
 11
1.21352
 21
-45.1183
  0
LINE
  8
0
 10
1.21352
 20
-45.1183
 11
1.37032
 21
-45.3899
  0
LINE
  8
0
 10
1.37032
 20
-45.3899
 11
1.46721
 21
-45.6881
  0
LINE
  8
0
 10
1.46721
 20
-45.6881
 11
1.5
 21
-46
  0
LINE
  8
0
 10
1.5
 20
-46
 11
1.46721
 21
-46.3119
  0
LINE
  8
0
 10
1.46721
 20
-46.3119
 11
1.37032
 21
-46.6101
  0
LINE
  8
0
 10
1.37032
 20
-46.6101
 11
1.21352
 21
-46.8817
  0
LINE
  8
0
 10
1.21352
 20
-46.8817
 11
1.00369
 21
-47.1147
  0
LINE
  8
0
 10
1.00369
 20
-47.1147
 11
0.75
 21
-47.299
  0
LINE
  8
0
 10
0.75
 20
-47.299
 11
0.463516
 21
-47.4266
  0
LINE
  8
0
 10
0.463516
 20
-47.4266
 11
0.156784
 21
-47.4918
  0
LINE
  8
0
 10
0.156784
 20
-47.4918
 11
-0.156784
 21
-47.4918
  0
ENDSEC
  0
SECTION
  2
OBJECTS
  0
DICTIONARY
  0
ENDSEC
  0
EOF
