  0
SECTION
  2
HEADER
  9
$ACADVER
  1
AC1018
  9
$ACADMAINTVER
 70
     0
  9
$DWGCODEPAGE
  3
ANSI_1250
  9
$INSBASE
 10
0.0
 20
0.0
 30
0.0
  9
$EXTMIN
 10
-3.200011999999958
 20
-244.999996
 30
0.0
  9
$EXTMAX
 10
223.300003
 20
0.0
 30
0.0
  9
$LIMMIN
 10
0.0
 20
0.0
  9
$LIMMAX
 10
12.0
 20
9.0
  9
$ORTHOMODE
 70
     0
  9
$REGENMODE
 70
     1
  9
$FILLMODE
 70
     1
  9
$QTEXTMODE
 70
     0
  9
$MIRRTEXT
 70
     1
  9
$LTSCALE
 40
1.0
  9
$ATTMODE
 70
     1
  9
$TEXTSIZE
 40
0.2
  9
$TRACEWID
 40
0.05
  9
$TEXTSTYLE
  7
Standard
  9
$CLAYER
  8
0
  9
$CELTYPE
  6
ByLayer
  9
$CECOLOR
 62
   256
  9
$CELTSCALE
 40
1.0
  9
$DISPSILH
 70
     0
  9
$DIMSCALE
 40
1.0
  9
$DIMASZ
 40
0.18
  9
$DIMEXO
 40
0.0625
  9
$DIMDLI
 40
0.38
  9
$DIMRND
 40
0.0
  9
$DIMDLE
 40
0.0
  9
$DIMEXE
 40
0.18
  9
$DIMTP
 40
0.0
  9
$DIMTM
 40
0.0
  9
$DIMTXT
 40
0.18
  9
$DIMCEN
 40
0.09
  9
$DIMTSZ
 40
0.0
  9
$DIMTOL
 70
     0
  9
$DIMLIM
 70
     0
  9
$DIMTIH
 70
     1
  9
$DIMTOH
 70
     1
  9
$DIMSE1
 70
     0
  9
$DIMSE2
 70
     0
  9
$DIMTAD
 70
     0
  9
$DIMZIN
 70
     0
  9
$DIMBLK
  1

  9
$DIMASO
 70
     1
  9
$DIMSHO
 70
     1
  9
$DIMPOST
  1

  9
$DIMAPOST
  1

  9
$DIMALT
 70
     0
  9
$DIMALTD
 70
     2
  9
$DIMALTF
 40
25.4
  9
$DIMLFAC
 40
1.0
  9
$DIMTOFL
 70
     0
  9
$DIMTVP
 40
0.0
  9
$DIMTIX
 70
     0
  9
$DIMSOXD
 70
     0
  9
$DIMSAH
 70
     0
  9
$DIMBLK1
  1

  9
$DIMBLK2
  1

  9
$DIMSTYLE
  2
Standard
  9
$DIMCLRD
 70
     0
  9
$DIMCLRE
 70
     0
  9
$DIMCLRT
 70
     0
  9
$DIMTFAC
 40
1.0
  9
$DIMGAP
 40
0.09
  9
$DIMJUST
 70
     0
  9
$DIMSD1
 70
     0
  9
$DIMSD2
 70
     0
  9
$DIMTOLJ
 70
     1
  9
$DIMTZIN
 70
     0
  9
$DIMALTZ
 70
     0
  9
$DIMALTTZ
 70
     0
  9
$DIMUPT
 70
     0
  9
$DIMDEC
 70
     4
  9
$DIMTDEC
 70
     4
  9
$DIMALTU
 70
     2
  9
$DIMALTTD
 70
     2
  9
$DIMTXSTY
  7
Standard
  9
$DIMAUNIT
 70
     0
  9
$DIMADEC
 70
     0
  9
$DIMALTRND
 40
0.0
  9
$DIMAZIN
 70
     0
  9
$DIMDSEP
 70
    46
  9
$DIMATFIT
 70
     3
  9
$DIMFRAC
 70
     0
  9
$DIMLDRBLK
  1

  9
$DIMLUNIT
 70
     2
  9
$DIMLWD
 70
    -2
  9
$DIMLWE
 70
    -2
  9
$DIMTMOVE
 70
     2
  9
$LUNITS
 70
     2
  9
$LUPREC
 70
     3
  9
$SKETCHINC
 40
0.1
  9
$FILLETRAD
 40
0.5
  9
$AUNITS
 70
     0
  9
$AUPREC
 70
     0
  9
$MENU
  1
.
  9
$ELEVATION
 40
0.0
  9
$PELEVATION
 40
0.0
  9
$THICKNESS
 40
0.0
  9
$LIMCHECK
 70
     0
  9
$CHAMFERA
 40
0.5
  9
$CHAMFERB
 40
0.5
  9
$CHAMFERC
 40
1.0
  9
$CHAMFERD
 40
0.0
  9
$SKPOLY
 70
     0
  9
$TDCREATE
 40
2457716.829961169
  9
$TDUCREATE
 40
2457716.788294503
  9
$TDUPDATE
 40
2457716.82997794
  9
$TDUUPDATE
 40
2457716.788311273
  9
$TDINDWG
 40
0.0000000116
  9
$TDUSRTIMER
 40
0.0000000116
  9
$USRTIMER
 70
     1
  9
$ANGBASE
 50
0.0
  9
$ANGDIR
 70
     0
  9
$PDMODE
 70
     0
  9
$PDSIZE
 40
0.0
  9
$PLINEWID
 40
0.0
  9
$SPLFRAME
 70
     0
  9
$SPLINETYPE
 70
     6
  9
$SPLINESEGS
 70
     8
  9
$HANDSEED
  5
E3
  9
$SURFTAB1
 70
     6
  9
$SURFTAB2
 70
     6
  9
$SURFTYPE
 70
     6
  9
$SURFU
 70
     6
  9
$SURFV
 70
     6
  9
$UCSBASE
  2

  9
$UCSNAME
  2

  9
$UCSORG
 10
0.0
 20
0.0
 30
0.0
  9
$UCSXDIR
 10
1.0
 20
0.0
 30
0.0
  9
$UCSYDIR
 10
0.0
 20
1.0
 30
0.0
  9
$UCSORTHOREF
  2

  9
$UCSORTHOVIEW
 70
     0
  9
$UCSORGTOP
 10
0.0
 20
0.0
 30
0.0
  9
$UCSORGBOTTOM
 10
0.0
 20
0.0
 30
0.0
  9
$UCSORGLEFT
 10
0.0
 20
0.0
 30
0.0
  9
$UCSORGRIGHT
 10
0.0
 20
0.0
 30
0.0
  9
$UCSORGFRONT
 10
0.0
 20
0.0
 30
0.0
  9
$UCSORGBACK
 10
0.0
 20
0.0
 30
0.0
  9
$PUCSBASE
  2

  9
$PUCSNAME
  2

  9
$PUCSORG
 10
0.0
 20
0.0
 30
0.0
  9
$PUCSXDIR
 10
1.0
 20
0.0
 30
0.0
  9
$PUCSYDIR
 10
0.0
 20
1.0
 30
0.0
  9
$PUCSORTHOREF
  2

  9
$PUCSORTHOVIEW
 70
     0
  9
$PUCSORGTOP
 10
0.0
 20
0.0
 30
0.0
  9
$PUCSORGBOTTOM
 10
0.0
 20
0.0
 30
0.0
  9
$PUCSORGLEFT
 10
0.0
 20
0.0
 30
0.0
  9
$PUCSORGRIGHT
 10
0.0
 20
0.0
 30
0.0
  9
$PUCSORGFRONT
 10
0.0
 20
0.0
 30
0.0
  9
$PUCSORGBACK
 10
0.0
 20
0.0
 30
0.0
  9
$USERI1
 70
     0
  9
$USERI2
 70
     0
  9
$USERI3
 70
     0
  9
$USERI4
 70
     0
  9
$USERI5
 70
     0
  9
$USERR1
 40
0.0
  9
$USERR2
 40
0.0
  9
$USERR3
 40
0.0
  9
$USERR4
 40
0.0
  9
$USERR5
 40
0.0
  9
$WORLDVIEW
 70
     1
  9
$SHADEDGE
 70
     3
  9
$SHADEDIF
 70
    70
  9
$TILEMODE
 70
     1
  9
$MAXACTVP
 70
    64
  9
$PINSBASE
 10
0.0
 20
0.0
 30
0.0
  9
$PLIMCHECK
 70
     0
  9
$PEXTMIN
 10
1.000000000000000E+20
 20
1.000000000000000E+20
 30
1.000000000000000E+20
  9
$PEXTMAX
 10
-1.000000000000000E+20
 20
-1.000000000000000E+20
 30
-1.000000000000000E+20
  9
$PLIMMIN
 10
0.0
 20
0.0
  9
$PLIMMAX
 10
12.0
 20
9.0
  9
$UNITMODE
 70
     0
  9
$VISRETAIN
 70
     1
  9
$PLINEGEN
 70
     0
  9
$PSLTSCALE
 70
     1
  9
$TREEDEPTH
 70
  3020
  9
$CMLSTYLE
  2
Standard
  9
$CMLJUST
 70
     0
  9
$CMLSCALE
 40
1.0
  9
$PROXYGRAPHICS
 70
     1
  9
$MEASUREMENT
 70
     0
  9
$CELWEIGHT
370
    -1
  9
$ENDCAPS
280
     0
  9
$JOINSTYLE
280
     0
  9
$LWDISPLAY
290
     0
  9
$INSUNITS
 70
     4
  9
$HYPERLINKBASE
  1

  9
$STYLESHEET
  1

  9
$XEDIT
290
     1
  9
$CEPSNTYPE
380
     0
  9
$PSTYLEMODE
290
     1
  9
$FINGERPRINTGUID
  2
{0C667FB8-6C89-4BC6-BB23-21A5AEDE2BF5}
  9
$VERSIONGUID
  2
{FAEB1C32-E019-11D5-929B-00C0DF256EC4}
  9
$EXTNAMES
290
     1
  9
$PSVPSCALE
 40
0.0
  9
$OLESTARTUP
290
     0
  9
$SORTENTS
280
   127
  9
$INDEXCTL
280
     0
  9
$HIDETEXT
280
     1
  9
$XCLIPFRAME
290
     0
  9
$HALOGAP
280
     0
  9
$OBSCOLOR
 70
   257
  9
$OBSLTYPE
280
     0
  9
$INTERSECTIONDISPLAY
280
     0
  9
$INTERSECTIONCOLOR
 70
   257
  9
$DIMASSOC
280
     2
  9
$PROJECTNAME
  1

  0
ENDSEC
  0
SECTION
  2
CLASSES
  0
CLASS
  1
ACDBDICTIONARYWDFLT
  2
AcDbDictionaryWithDefault
  3
ObjectDBX Classes
 90
        0
 91
        4
280
     0
281
     0
  0
CLASS
  1
VISUALSTYLE
  2
AcDbVisualStyle
  3
ObjectDBX Classes
 90
     4095
 91
        4
280
     0
281
     0
  0
CLASS
  1
MATERIAL
  2
AcDbMaterial
  3
ObjectDBX Classes
 90
     1153
 91
        4
280
     0
281
     0
  0
CLASS
  1
SUN
  2
AcDbSun
  3
SCENEOE
 90
     1024
 91
        4
280
     0
281
     0
  0
ENDSEC
  0
SECTION
  2
TABLES
  0
TABLE
  2
VPORT
  5
8
330
0
100
AcDbSymbolTable
 70
     1
  0
VPORT
  5
29
330
8
100
AcDbSymbolTableRecord
100
AcDbViewportTableRecord
  2
*Active
 70
     0
 10
0.0
 20
0.0
 11
1.0
 21
1.0
 12
110.0499955
 22
-122.499998
 13
0.0
 23
0.0
 14
0.5
 24
0.5
 15
0.5
 25
0.5
 16
0.0
 26
0.0
 36
1.0
 17
0.0
 27
0.0
 37
0.0
 40
249.89999592
 41
0.9244898722365692
 42
50.0
 43
0.0
 44
0.0
 50
0.0
 51
0.0
 71
     0
 72
   100
 73
     1
 74
     3
 75
     0
 76
     0
 77
     0
 78
     0
281
     0
 65
     1
110
0.0
120
0.0
130
0.0
111
1.0
121
0.0
131
0.0
112
0.0
122
1.0
132
0.0
 79
     0
146
0.0
  0
ENDTAB
  0
TABLE
  2
LTYPE
  5
5
330
0
100
AcDbSymbolTable
 70
     1
  0
LTYPE
  5
14
330
5
100
AcDbSymbolTableRecord
100
AcDbLinetypeTableRecord
  2
ByBlock
 70
     0
  3

 72
    65
 73
     0
 40
0.0
  0
LTYPE
  5
15
330
5
100
AcDbSymbolTableRecord
100
AcDbLinetypeTableRecord
  2
ByLayer
 70
     0
  3

 72
    65
 73
     0
 40
0.0
  0
LTYPE
  5
16
330
5
100
AcDbSymbolTableRecord
100
AcDbLinetypeTableRecord
  2
Continuous
 70
     0
  3
Solid line
 72
    65
 73
     0
 40
0.0
  0
ENDTAB
  0
TABLE
  2
LAYER
  5
2
330
0
100
AcDbSymbolTable
 70
     2
  0
LAYER
  5
10
330
2
100
AcDbSymbolTableRecord
100
AcDbLayerTableRecord
  2
0
 70
     0
 62
     7
  6
Continuous
370
    -3
390
F
  0
LAYER
  5
40
330
2
100
AcDbSymbolTableRecord
100
AcDbLayerTableRecord
  2
Výchozí
 70
     0
 62
    18
420
        0
  6
Continuous
370
    -3
390
F
  0
ENDTAB
  0
TABLE
  2
STYLE
  5
3
330
0
100
AcDbSymbolTable
 70
     1
  0
STYLE
  5
11
330
3
100
AcDbSymbolTableRecord
100
AcDbTextStyleTableRecord
  2
Standard
 70
     0
 40
0.0
 41
1.0
 50
0.0
 71
     0
 42
0.2
  3
txt
  4

  0
ENDTAB
  0
TABLE
  2
VIEW
  5
6
330
0
100
AcDbSymbolTable
 70
     0
  0
ENDTAB
  0
TABLE
  2
UCS
  5
7
330
0
100
AcDbSymbolTable
 70
     0
  0
ENDTAB
  0
TABLE
  2
APPID
  5
9
330
0
100
AcDbSymbolTable
 70
     1
  0
APPID
  5
12
330
9
100
AcDbSymbolTableRecord
100
AcDbRegAppTableRecord
  2
ACAD
 70
     0
  0
ENDTAB
  0
TABLE
  2
DIMSTYLE
  5
A
330
0
100
AcDbSymbolTable
 70
     1
100
AcDbDimStyleTable
  0
DIMSTYLE
105
27
330
A
100
AcDbSymbolTableRecord
100
AcDbDimStyleTableRecord
  2
Standard
 70
     0
178
     0
340
11
  0
ENDTAB
  0
TABLE
  2
BLOCK_RECORD
  5
1
330
0
100
AcDbSymbolTable
 70
     1
  0
BLOCK_RECORD
  5
1F
330
1
100
AcDbSymbolTableRecord
100
AcDbBlockTableRecord
  2
*Model_Space
340
22
  0
BLOCK_RECORD
  5
1B
330
1
100
AcDbSymbolTableRecord
100
AcDbBlockTableRecord
  2
*Paper_Space
340
1E
  0
BLOCK_RECORD
  5
23
330
1
100
AcDbSymbolTableRecord
100
AcDbBlockTableRecord
  2
*Paper_Space0
340
26
  0
ENDTAB
  0
ENDSEC
  0
SECTION
  2
BLOCKS
  0
BLOCK
  5
20
330
1F
100
AcDbEntity
  8
0
100
AcDbBlockBegin
  2
*Model_Space
 70
     0
 10
0.0
 20
0.0
 30
0.0
  3
*Model_Space
  1

  0
ENDBLK
  5
21
330
1F
100
AcDbEntity
  8
0
100
AcDbBlockEnd
  0
BLOCK
  5
1C
330
1B
100
AcDbEntity
 67
     1
  8
0
100
AcDbBlockBegin
  2
*Paper_Space
 70
     0
 10
0.0
 20
0.0
 30
0.0
  3
*Paper_Space
  1

  0
ENDBLK
  5
1D
330
1B
100
AcDbEntity
 67
     1
  8
0
100
AcDbBlockEnd
  0
BLOCK
  5
24
330
23
100
AcDbEntity
  8
0
100
AcDbBlockBegin
  2
*Paper_Space0
 70
     0
 10
0.0
 20
0.0
 30
0.0
  3
*Paper_Space0
  1

  0
ENDBLK
  5
25
330
23
100
AcDbEntity
  8
0
100
AcDbBlockEnd
  0
ENDSEC
  0
SECTION
  2
ENTITIES
  0
LINE
  5
41
330
1F
100
AcDbEntity
  8
Výchozí
 62
     7
420
 16777215
370
    35
100
AcDbLine
 10
140.600006
 20
-45.0
 30
0.0
 11
63.39999400000001
 21
-45.0
 31
0.0
  0
LINE
  5
42
330
1F
100
AcDbEntity
  8
Výchozí
 62
     7
420
 16777215
370
    35
100
AcDbLine
 10
63.39999400000001
 20
-41.35
 30
0.0
 11
63.39999400000001
 21
-45.0
 31
0.0
  0
LINE
  5
43
330
1F
100
AcDbEntity
  8
Výchozí
 62
     7
420
 16777215
370
    35
100
AcDbLine
 10
37.10000600000001
 20
-41.35
 30
0.0
 11
63.39999400000001
 21
-41.35
 31
0.0
  0
LINE
  5
44
330
1F
100
AcDbEntity
  8
Výchozí
 62
     7
420
 16777215
370
    35
100
AcDbLine
 10
37.10000600000001
 20
-45.0
 30
0.0
 11
37.10000600000001
 21
-41.35
 31
0.0
  0
LINE
  5
45
330
1F
100
AcDbEntity
  8
Výchozí
 62
     7
420
 16777215
370
    35
100
AcDbLine
 10
37.10000600000001
 20
-45.0
 30
0.0
 11
0.0
 21
-45.0
 31
0.0
  0
LINE
  5
46
330
1F
100
AcDbEntity
  8
Výchozí
 62
     7
420
 16777215
370
    35
100
AcDbLine
 10
0.0
 20
-45.0
 30
0.0
 11
0.0
 21
-35.0
 31
0.0
  0
LINE
  5
47
330
1F
100
AcDbEntity
  8
Výchozí
 62
     7
420
 16777215
370
    35
100
AcDbLine
 10
-3.0
 20
-35.0
 30
0.0
 11
0.0
 21
-35.0
 31
0.0
  0
LINE
  5
48
330
1F
100
AcDbEntity
  8
Výchozí
 62
     7
420
 16777215
370
    35
100
AcDbLine
 10
-3.0
 20
-10.0
 30
0.0
 11
-3.0
 21
-35.0
 31
0.0
  0
LINE
  5
49
330
1F
100
AcDbEntity
  8
Výchozí
 62
     7
420
 16777215
370
    35
100
AcDbLine
 10
-3.0
 20
-10.0
 30
0.0
 11
0.0
 21
-10.0
 31
0.0
  0
LINE
  5
4A
330
1F
100
AcDbEntity
  8
Výchozí
 62
     7
420
 16777215
370
    35
100
AcDbLine
 10
0.0
 20
0.0
 30
0.0
 11
0.0
 21
-10.0
 31
0.0
  0
LINE
  5
4B
330
1F
100
AcDbEntity
  8
Výchozí
 62
     7
420
 16777215
370
    35
100
AcDbLine
 10
203.850006
 20
0.0
 30
0.0
 11
0.0
 21
0.0
 31
0.0
  0
LINE
  5
4C
330
1F
100
AcDbEntity
  8
Výchozí
 62
     7
420
 16777215
370
    35
100
AcDbLine
 10
203.850006
 20
-10.0
 30
0.0
 11
203.850006
 21
0.0
 31
0.0
  0
LINE
  5
4D
330
1F
100
AcDbEntity
  8
Výchozí
 62
     7
420
 16777215
370
    35
100
AcDbLine
 10
207.0
 20
-10.0
 30
0.0
 11
203.850006
 21
-10.0
 31
0.0
  0
LINE
  5
4E
330
1F
100
AcDbEntity
  8
Výchozí
 62
     7
420
 16777215
370
    35
100
AcDbLine
 10
207.0
 20
-10.0
 30
0.0
 11
207.0
 21
-35.0
 31
0.0
  0
LINE
  5
4F
330
1F
100
AcDbEntity
  8
Výchozí
 62
     7
420
 16777215
370
    35
100
AcDbLine
 10
203.850006
 20
-35.0
 30
0.0
 11
207.0
 21
-35.0
 31
0.0
  0
LINE
  5
50
330
1F
100
AcDbEntity
  8
Výchozí
 62
     7
420
 16777215
370
    35
100
AcDbLine
 10
203.850006
 20
-35.0
 30
0.0
 11
203.850006
 21
-45.0
 31
0.0
  0
LINE
  5
51
330
1F
100
AcDbEntity
  8
Výchozí
 62
     7
420
 16777215
370
    35
100
AcDbLine
 10
203.850006
 20
-45.0
 30
0.0
 11
166.899994
 21
-45.0
 31
0.0
  0
LINE
  5
52
330
1F
100
AcDbEntity
  8
Výchozí
 62
     7
420
 16777215
370
    35
100
AcDbLine
 10
166.899994
 20
-45.0
 30
0.0
 11
166.899994
 21
-41.35
 31
0.0
  0
LINE
  5
53
330
1F
100
AcDbEntity
  8
Výchozí
 62
     7
420
 16777215
370
    35
100
AcDbLine
 10
140.600006
 20
-41.35
 30
0.0
 11
166.899994
 21
-41.35
 31
0.0
  0
LINE
  5
54
330
1F
100
AcDbEntity
  8
Výchozí
 62
     7
420
 16777215
370
    35
100
AcDbLine
 10
140.600006
 20
-41.35
 30
0.0
 11
140.600006
 21
-45.0
 31
0.0
  0
CIRCLE
  5
55
330
1F
100
AcDbEntity
  8
Výchozí
 62
     7
420
 16777215
370
    35
100
AcDbCircle
 10
192.25
 20
-22.5
 30
0.0
 40
1.75
  0
CIRCLE
  5
56
330
1F
100
AcDbEntity
  8
Výchozí
 62
     7
420
 16777215
370
    35
100
AcDbCircle
 10
11.75
 20
-22.5
 30
0.0
 40
1.75
  0
CIRCLE
  5
57
330
1F
100
AcDbEntity
  8
Výchozí
 62
     7
420
 16777215
370
    35
100
AcDbCircle
 10
153.75
 20
-36.5
 30
0.0
 40
1.75
  0
CIRCLE
  5
58
330
1F
100
AcDbEntity
  8
Výchozí
 62
     7
420
 16777215
370
    35
100
AcDbCircle
 10
50.25
 20
-36.5
 30
0.0
 40
1.75
  0
LINE
  5
59
330
1F
100
AcDbEntity
  8
Výchozí
 62
     7
420
 16777215
370
    35
100
AcDbLine
 10
220.100006
 20
-95.0
 30
0.0
 11
0.0
 21
-95.0
 31
0.0
  0
LINE
  5
5A
330
1F
100
AcDbEntity
  8
Výchozí
 62
     7
420
 16777215
370
    35
100
AcDbLine
 10
0.0
 20
-95.0
 30
0.0
 11
0.0
 21
-79.800003
 31
0.0
  0
LINE
  5
5B
330
1F
100
AcDbEntity
  8
Výchozí
 62
     7
420
 16777215
370
    35
100
AcDbLine
 10
0.0
 20
-79.800003
 30
0.0
 11
-3.199997
 21
-79.800003
 31
0.0
  0
LINE
  5
5C
330
1F
100
AcDbEntity
  8
Výchozí
 62
     7
420
 16777215
370
    35
100
AcDbLine
 10
-3.199997
 20
-65.199997
 30
0.0
 11
-3.199997
 21
-79.800003
 31
0.0
  0
LINE
  5
5D
330
1F
100
AcDbEntity
  8
Výchozí
 62
     7
420
 16777215
370
    35
100
AcDbLine
 10
-3.199997
 20
-65.199997
 30
0.0
 11
0.0
 21
-65.199997
 31
0.0
  0
LINE
  5
5E
330
1F
100
AcDbEntity
  8
Výchozí
 62
     7
420
 16777215
370
    35
100
AcDbLine
 10
0.0
 20
-65.199997
 30
0.0
 11
0.0
 21
-50.0
 31
0.0
  0
LINE
  5
5F
330
1F
100
AcDbEntity
  8
Výchozí
 62
     7
420
 16777215
370
    35
100
AcDbLine
 10
0.0
 20
-50.0
 30
0.0
 11
220.100006
 21
-50.0
 31
0.0
  0
LINE
  5
60
330
1F
100
AcDbEntity
  8
Výchozí
 62
     7
420
 16777215
370
    35
100
AcDbLine
 10
220.100006
 20
-50.0
 30
0.0
 11
220.100006
 21
-65.199997
 31
0.0
  0
LINE
  5
61
330
1F
100
AcDbEntity
  8
Výchozí
 62
     7
420
 16777215
370
    35
100
AcDbLine
 10
220.100006
 20
-65.199997
 30
0.0
 11
223.300003
 21
-65.199997
 31
0.0
  0
LINE
  5
62
330
1F
100
AcDbEntity
  8
Výchozí
 62
     7
420
 16777215
370
    35
100
AcDbLine
 10
223.300003
 20
-65.199997
 30
0.0
 11
223.300003
 21
-79.800003
 31
0.0
  0
LINE
  5
63
330
1F
100
AcDbEntity
  8
Výchozí
 62
     7
420
 16777215
370
    35
100
AcDbLine
 10
223.300003
 20
-79.800003
 30
0.0
 11
220.100006
 21
-79.800003
 31
0.0
  0
LINE
  5
64
330
1F
100
AcDbEntity
  8
Výchozí
 62
     7
420
 16777215
370
    35
100
AcDbLine
 10
220.100006
 20
-95.0
 30
0.0
 11
220.100006
 21
-79.800003
 31
0.0
  0
CIRCLE
  5
65
330
1F
100
AcDbEntity
  8
Výchozí
 62
     7
420
 16777215
370
    35
100
AcDbCircle
 10
208.550003
 20
-72.5
 30
0.0
 40
1.75
  0
LINE
  5
66
330
1F
100
AcDbEntity
  8
Výchozí
 62
     7
420
 16777215
370
    35
100
AcDbLine
 10
108.350006
 20
-59.800003
 30
0.0
 11
108.350006
 21
-85.199997
 31
0.0
  0
LINE
  5
67
330
1F
100
AcDbEntity
  8
Výchozí
 62
     7
420
 16777215
370
    35
100
AcDbLine
 10
108.350006
 20
-85.199997
 30
0.0
 11
111.75
 21
-85.199997
 31
0.0
  0
LINE
  5
68
330
1F
100
AcDbEntity
  8
Výchozí
 62
     7
420
 16777215
370
    35
100
AcDbLine
 10
111.75
 20
-85.199997
 30
0.0
 11
111.75
 21
-59.800003
 31
0.0
  0
LINE
  5
69
330
1F
100
AcDbEntity
  8
Výchozí
 62
     7
420
 16777215
370
    35
100
AcDbLine
 10
111.75
 20
-59.800003
 30
0.0
 11
108.350006
 21
-59.800003
 31
0.0
  0
CIRCLE
  5
6A
330
1F
100
AcDbEntity
  8
Výchozí
 62
     7
420
 16777215
370
    35
100
AcDbCircle
 10
11.550003
 20
-72.5
 30
0.0
 40
1.75
  0
CIRCLE
  5
6B
330
1F
100
AcDbEntity
  8
Výchozí
 62
     7
420
 16777215
370
    35
100
AcDbCircle
 10
123.300003
 20
-72.5
 30
0.0
 40
1.75
  0
LINE
  5
6C
330
1F
100
AcDbEntity
  8
Výchozí
 62
     7
420
 16777215
370
    35
100
AcDbLine
 10
176.674988
 20
-100.0
 30
0.0
 11
174.674988
 21
-102.0
 31
0.0
  0
LINE
  5
6D
330
1F
100
AcDbEntity
  8
Výchozí
 62
     7
420
 16777215
370
    35
100
AcDbLine
 10
174.674988
 20
-102.0
 30
0.0
 11
174.674988
 21
-119.999996
 31
0.0
  0
LINE
  5
6E
330
1F
100
AcDbEntity
  8
Výchozí
 62
     7
420
 16777215
370
    35
100
AcDbLine
 10
220.099976
 20
-100.0
 30
0.0
 11
176.674988
 21
-100.0
 31
0.0
  0
LINE
  5
6F
330
1F
100
AcDbEntity
  8
Výchozí
 62
     7
420
 16777215
370
    35
100
AcDbLine
 10
162.674988
 20
-100.0
 30
0.0
 11
164.674988
 21
-102.0
 31
0.0
  0
LINE
  5
70
330
1F
100
AcDbEntity
  8
Výchozí
 62
     7
420
 16777215
370
    35
100
AcDbLine
 10
162.674988
 20
-100.0
 30
0.0
 11
64.92498800000004
 21
-100.0
 31
0.0
  0
LINE
  5
71
330
1F
100
AcDbEntity
  8
Výchozí
 62
     7
420
 16777215
370
    35
100
AcDbLine
 10
164.674988
 20
-102.0
 30
0.0
 11
164.674988
 21
-119.999996
 31
0.0
  0
LINE
  5
72
330
1F
100
AcDbEntity
  8
Výchozí
 62
     7
420
 16777215
370
    35
100
AcDbLine
 10
50.92498800000004
 20
-100.0
 30
0.0
 11
52.92498800000004
 21
-102.0
 31
0.0
  0
LINE
  5
73
330
1F
100
AcDbEntity
  8
Výchozí
 62
     7
420
 16777215
370
    35
100
AcDbLine
 10
52.92498800000004
 20
-102.0
 30
0.0
 11
52.92498800000004
 21
-119.999996
 31
0.0
  0
LINE
  5
74
330
1F
100
AcDbEntity
  8
Výchozí
 62
     7
420
 16777215
370
    35
100
AcDbLine
 10
50.92498800000004
 20
-100.0
 30
0.0
 11
0.0
 21
-100.0
 31
0.0
  0
LINE
  5
75
330
1F
100
AcDbEntity
  8
Výchozí
 62
     7
420
 16777215
370
    35
100
AcDbLine
 10
64.92498800000004
 20
-100.0
 30
0.0
 11
62.92498800000004
 21
-102.0
 31
0.0
  0
LINE
  5
76
330
1F
100
AcDbEntity
  8
Výchozí
 62
     7
420
 16777215
370
    35
100
AcDbLine
 10
62.92498800000004
 20
-102.0
 30
0.0
 11
62.92498800000004
 21
-119.999996
 31
0.0
  0
CIRCLE
  5
77
330
1F
100
AcDbEntity
  8
Výchozí
 62
     7
420
 16777215
370
    35
100
AcDbCircle
 10
208.549988
 20
-122.499996
 30
0.0
 40
1.75
  0
CIRCLE
  5
78
330
1F
100
AcDbEntity
  8
Výchozí
 62
     7
420
 16777215
370
    35
100
AcDbCircle
 10
96.79998800000004
 20
-122.499996
 30
0.0
 40
1.75
  0
LINE
  5
79
330
1F
100
AcDbEntity
  8
Výchozí
 62
     7
420
 16777215
370
    35
100
AcDbLine
 10
164.674988
 20
-119.999996
 30
0.0
 11
174.674988
 21
-119.999996
 31
0.0
  0
LINE
  5
7A
330
1F
100
AcDbEntity
  8
Výchozí
 62
     7
420
 16777215
370
    35
100
AcDbLine
 10
52.92498800000004
 20
-119.999996
 30
0.0
 11
62.92498800000004
 21
-119.999996
 31
0.0
  0
LINE
  5
7B
330
1F
100
AcDbEntity
  8
Výchozí
 62
     7
420
 16777215
370
    35
100
AcDbLine
 10
108.349976
 20
-109.799995
 30
0.0
 11
108.349976
 21
-135.199996
 31
0.0
  0
LINE
  5
7C
330
1F
100
AcDbEntity
  8
Výchozí
 62
     7
420
 16777215
370
    35
100
AcDbLine
 10
111.75
 20
-135.199996
 30
0.0
 11
108.349976
 21
-135.199996
 31
0.0
  0
LINE
  5
7D
330
1F
100
AcDbEntity
  8
Výchozí
 62
     7
420
 16777215
370
    35
100
AcDbLine
 10
111.75
 20
-135.199996
 30
0.0
 11
111.75
 21
-109.799995
 31
0.0
  0
LINE
  5
7E
330
1F
100
AcDbEntity
  8
Výchozí
 62
     7
420
 16777215
370
    35
100
AcDbLine
 10
108.349976
 20
-109.799995
 30
0.0
 11
111.75
 21
-109.799995
 31
0.0
  0
CIRCLE
  5
7F
330
1F
100
AcDbEntity
  8
Výchozí
 62
     7
420
 16777215
370
    35
100
AcDbCircle
 10
11.54998800000004
 20
-122.499996
 30
0.0
 40
1.75
  0
LINE
  5
80
330
1F
100
AcDbEntity
  8
Výchozí
 62
     7
420
 16777215
370
    35
100
AcDbLine
 10
0.0
 20
-129.799995
 30
0.0
 11
0.0
 21
-144.999996
 31
0.0
  0
LINE
  5
81
330
1F
100
AcDbEntity
  8
Výchozí
 62
     7
420
 16777215
370
    35
100
AcDbLine
 10
0.0
 20
-129.799995
 30
0.0
 11
-3.200011999999958
 21
-129.799995
 31
0.0
  0
LINE
  5
82
330
1F
100
AcDbEntity
  8
Výchozí
 62
     7
420
 16777215
370
    35
100
AcDbLine
 10
-3.200011999999958
 20
-115.199996
 30
0.0
 11
-3.200011999999958
 21
-129.799995
 31
0.0
  0
LINE
  5
83
330
1F
100
AcDbEntity
  8
Výchozí
 62
     7
420
 16777215
370
    35
100
AcDbLine
 10
-3.200011999999958
 20
-115.199996
 30
0.0
 11
0.0
 21
-115.199996
 31
0.0
  0
LINE
  5
84
330
1F
100
AcDbEntity
  8
Výchozí
 62
     7
420
 16777215
370
    35
100
AcDbLine
 10
0.0
 20
-115.199996
 30
0.0
 11
0.0
 21
-100.0
 31
0.0
  0
LINE
  5
85
330
1F
100
AcDbEntity
  8
Výchozí
 62
     7
420
 16777215
370
    35
100
AcDbLine
 10
220.099976
 20
-115.199996
 30
0.0
 11
220.099976
 21
-100.0
 31
0.0
  0
LINE
  5
86
330
1F
100
AcDbEntity
  8
Výchozí
 62
     7
420
 16777215
370
    35
100
AcDbLine
 10
223.299988
 20
-115.199996
 30
0.0
 11
220.099976
 21
-115.199996
 31
0.0
  0
LINE
  5
87
330
1F
100
AcDbEntity
  8
Výchozí
 62
     7
420
 16777215
370
    35
100
AcDbLine
 10
223.299988
 20
-129.799995
 30
0.0
 11
223.299988
 21
-115.199996
 31
0.0
  0
LINE
  5
88
330
1F
100
AcDbEntity
  8
Výchozí
 62
     7
420
 16777215
370
    35
100
AcDbLine
 10
223.299988
 20
-129.799995
 30
0.0
 11
220.099976
 21
-129.799995
 31
0.0
  0
LINE
  5
89
330
1F
100
AcDbEntity
  8
Výchozí
 62
     7
420
 16777215
370
    35
100
AcDbLine
 10
220.099976
 20
-144.999996
 30
0.0
 11
220.099976
 21
-129.799995
 31
0.0
  0
LINE
  5
8A
330
1F
100
AcDbEntity
  8
Výchozí
 62
     7
420
 16777215
370
    35
100
AcDbLine
 10
0.0
 20
-144.999996
 30
0.0
 11
220.099976
 21
-144.999996
 31
0.0
  0
LINE
  5
8B
330
1F
100
AcDbEntity
  8
Výchozí
 62
     7
420
 16777215
370
    35
100
AcDbLine
 10
169.899964
 20
-194.999996
 30
0.0
 11
210.0
 21
-194.999996
 31
0.0
  0
LINE
  5
8C
330
1F
100
AcDbEntity
  8
Výchozí
 62
     7
420
 16777215
370
    35
100
AcDbLine
 10
210.0
 20
-179.999996
 30
0.0
 11
210.0
 21
-194.999996
 31
0.0
  0
LINE
  5
8D
330
1F
100
AcDbEntity
  8
Výchozí
 62
     7
420
 16777215
370
    35
100
AcDbLine
 10
210.0
 20
-179.999996
 30
0.0
 11
207.0
 21
-179.999996
 31
0.0
  0
LINE
  5
8E
330
1F
100
AcDbEntity
  8
Výchozí
 62
     7
420
 16777215
370
    35
100
AcDbLine
 10
207.0
 20
-179.999996
 30
0.0
 11
207.0
 21
-164.999996
 31
0.0
  0
LINE
  5
8F
330
1F
100
AcDbEntity
  8
Výchozí
 62
     7
420
 16777215
370
    35
100
AcDbLine
 10
207.0
 20
-164.999996
 30
0.0
 11
210.0
 21
-164.999996
 31
0.0
  0
LINE
  5
90
330
1F
100
AcDbEntity
  8
Výchozí
 62
     7
420
 16777215
370
    35
100
AcDbLine
 10
210.0
 20
-149.999996
 30
0.0
 11
210.0
 21
-164.999996
 31
0.0
  0
LINE
  5
91
330
1F
100
AcDbEntity
  8
Výchozí
 62
     7
420
 16777215
370
    35
100
AcDbLine
 10
0.0
 20
-149.999996
 30
0.0
 11
210.0
 21
-149.999996
 31
0.0
  0
LINE
  5
92
330
1F
100
AcDbEntity
  8
Výchozí
 62
     7
420
 16777215
370
    35
100
AcDbLine
 10
0.0
 20
-149.999996
 30
0.0
 11
0.0
 21
-164.999996
 31
0.0
  0
LINE
  5
93
330
1F
100
AcDbEntity
  8
Výchozí
 62
     7
420
 16777215
370
    35
100
AcDbLine
 10
0.0
 20
-164.999996
 30
0.0
 11
3.0
 21
-164.999996
 31
0.0
  0
LINE
  5
94
330
1F
100
AcDbEntity
  8
Výchozí
 62
     7
420
 16777215
370
    35
100
AcDbLine
 10
3.0
 20
-179.999996
 30
0.0
 11
3.0
 21
-164.999996
 31
0.0
  0
LINE
  5
95
330
1F
100
AcDbEntity
  8
Výchozí
 62
     7
420
 16777215
370
    35
100
AcDbLine
 10
3.0
 20
-179.999996
 30
0.0
 11
0.0
 21
-179.999996
 31
0.0
  0
LINE
  5
96
330
1F
100
AcDbEntity
  8
Výchozí
 62
     7
420
 16777215
370
    35
100
AcDbLine
 10
0.0
 20
-179.999996
 30
0.0
 11
0.0
 21
-194.999996
 31
0.0
  0
LINE
  5
97
330
1F
100
AcDbEntity
  8
Výchozí
 62
     7
420
 16777215
370
    35
100
AcDbLine
 10
0.0
 20
-194.999996
 30
0.0
 11
40.09997599999997
 21
-194.999996
 31
0.0
  0
LINE
  5
98
330
1F
100
AcDbEntity
  8
Výchozí
 62
     7
420
 16777215
370
    35
100
AcDbLine
 10
40.09997599999997
 20
-194.999996
 30
0.0
 11
40.09997599999997
 21
-191.349997
 31
0.0
  0
LINE
  5
99
330
1F
100
AcDbEntity
  8
Výchozí
 62
     7
420
 16777215
370
    35
100
AcDbLine
 10
66.40002499999991
 20
-191.349997
 30
0.0
 11
40.09997599999997
 21
-191.349997
 31
0.0
  0
LINE
  5
9A
330
1F
100
AcDbEntity
  8
Výchozí
 62
     7
420
 16777215
370
    35
100
AcDbLine
 10
66.40002499999991
 20
-194.999996
 30
0.0
 11
66.40002499999991
 21
-191.349997
 31
0.0
  0
LINE
  5
9B
330
1F
100
AcDbEntity
  8
Výchozí
 62
     7
420
 16777215
370
    35
100
AcDbLine
 10
66.40002499999991
 20
-194.999996
 30
0.0
 11
143.6000369999999
 21
-194.999996
 31
0.0
  0
LINE
  5
9C
330
1F
100
AcDbEntity
  8
Výchozí
 62
     7
420
 16777215
370
    35
100
AcDbLine
 10
143.6000369999999
 20
-191.349997
 30
0.0
 11
143.6000369999999
 21
-194.999996
 31
0.0
  0
LINE
  5
9D
330
1F
100
AcDbEntity
  8
Výchozí
 62
     7
420
 16777215
370
    35
100
AcDbLine
 10
169.899964
 20
-191.349997
 30
0.0
 11
143.6000369999999
 21
-191.349997
 31
0.0
  0
LINE
  5
9E
330
1F
100
AcDbEntity
  8
Výchozí
 62
     7
420
 16777215
370
    35
100
AcDbLine
 10
169.899964
 20
-194.999996
 30
0.0
 11
169.899964
 21
-191.349997
 31
0.0
  0
CIRCLE
  5
9F
330
1F
100
AcDbEntity
  8
Výchozí
 62
     7
420
 16777215
370
    35
100
AcDbCircle
 10
14.75
 20
-172.499996
 30
0.0
 40
1.75
  0
CIRCLE
  5
A0
330
1F
100
AcDbEntity
  8
Výchozí
 62
     7
420
 16777215
370
    35
100
AcDbCircle
 10
195.25
 20
-172.499996
 30
0.0
 40
1.75
  0
CIRCLE
  5
A1
330
1F
100
AcDbEntity
  8
Výchozí
 62
     7
420
 16777215
370
    35
100
AcDbCircle
 10
53.25
 20
-186.499996
 30
0.0
 40
1.75
  0
CIRCLE
  5
A2
330
1F
100
AcDbEntity
  8
Výchozí
 62
     7
420
 16777215
370
    35
100
AcDbCircle
 10
156.75
 20
-186.499996
 30
0.0
 40
1.75
  0
LINE
  5
A3
330
1F
100
AcDbEntity
  8
Výchozí
 62
     7
420
 16777215
370
    35
100
AcDbLine
 10
169.899964
 20
-244.999996
 30
0.0
 11
210.0
 21
-244.999996
 31
0.0
  0
LINE
  5
A4
330
1F
100
AcDbEntity
  8
Výchozí
 62
     7
420
 16777215
370
    35
100
AcDbLine
 10
210.0
 20
-229.999996
 30
0.0
 11
210.0
 21
-244.999996
 31
0.0
  0
LINE
  5
A5
330
1F
100
AcDbEntity
  8
Výchozí
 62
     7
420
 16777215
370
    35
100
AcDbLine
 10
210.0
 20
-229.999996
 30
0.0
 11
207.0
 21
-229.999996
 31
0.0
  0
LINE
  5
A6
330
1F
100
AcDbEntity
  8
Výchozí
 62
     7
420
 16777215
370
    35
100
AcDbLine
 10
207.0
 20
-229.999996
 30
0.0
 11
207.0
 21
-214.999996
 31
0.0
  0
LINE
  5
A7
330
1F
100
AcDbEntity
  8
Výchozí
 62
     7
420
 16777215
370
    35
100
AcDbLine
 10
207.0
 20
-214.999996
 30
0.0
 11
210.0
 21
-214.999996
 31
0.0
  0
LINE
  5
A8
330
1F
100
AcDbEntity
  8
Výchozí
 62
     7
420
 16777215
370
    35
100
AcDbLine
 10
210.0
 20
-199.999996
 30
0.0
 11
210.0
 21
-214.999996
 31
0.0
  0
LINE
  5
A9
330
1F
100
AcDbEntity
  8
Výchozí
 62
     7
420
 16777215
370
    35
100
AcDbLine
 10
0.0
 20
-199.999996
 30
0.0
 11
210.0
 21
-199.999996
 31
0.0
  0
LINE
  5
AA
330
1F
100
AcDbEntity
  8
Výchozí
 62
     7
420
 16777215
370
    35
100
AcDbLine
 10
0.0
 20
-199.999996
 30
0.0
 11
0.0
 21
-214.999996
 31
0.0
  0
LINE
  5
AB
330
1F
100
AcDbEntity
  8
Výchozí
 62
     7
420
 16777215
370
    35
100
AcDbLine
 10
0.0
 20
-214.999996
 30
0.0
 11
3.0
 21
-214.999996
 31
0.0
  0
LINE
  5
AC
330
1F
100
AcDbEntity
  8
Výchozí
 62
     7
420
 16777215
370
    35
100
AcDbLine
 10
3.0
 20
-229.999996
 30
0.0
 11
3.0
 21
-214.999996
 31
0.0
  0
LINE
  5
AD
330
1F
100
AcDbEntity
  8
Výchozí
 62
     7
420
 16777215
370
    35
100
AcDbLine
 10
3.0
 20
-229.999996
 30
0.0
 11
0.0
 21
-229.999996
 31
0.0
  0
LINE
  5
AE
330
1F
100
AcDbEntity
  8
Výchozí
 62
     7
420
 16777215
370
    35
100
AcDbLine
 10
0.0
 20
-229.999996
 30
0.0
 11
0.0
 21
-244.999996
 31
0.0
  0
LINE
  5
AF
330
1F
100
AcDbEntity
  8
Výchozí
 62
     7
420
 16777215
370
    35
100
AcDbLine
 10
0.0
 20
-244.999996
 30
0.0
 11
40.09997599999997
 21
-244.999996
 31
0.0
  0
LINE
  5
B0
330
1F
100
AcDbEntity
  8
Výchozí
 62
     7
420
 16777215
370
    35
100
AcDbLine
 10
40.09997599999997
 20
-244.999996
 30
0.0
 11
40.09997599999997
 21
-241.349997
 31
0.0
  0
LINE
  5
B1
330
1F
100
AcDbEntity
  8
Výchozí
 62
     7
420
 16777215
370
    35
100
AcDbLine
 10
66.40002499999991
 20
-241.349997
 30
0.0
 11
40.09997599999997
 21
-241.349997
 31
0.0
  0
LINE
  5
B2
330
1F
100
AcDbEntity
  8
Výchozí
 62
     7
420
 16777215
370
    35
100
AcDbLine
 10
66.40002499999991
 20
-244.999996
 30
0.0
 11
66.40002499999991
 21
-241.349997
 31
0.0
  0
LINE
  5
B3
330
1F
100
AcDbEntity
  8
Výchozí
 62
     7
420
 16777215
370
    35
100
AcDbLine
 10
66.40002499999991
 20
-244.999996
 30
0.0
 11
143.6000369999999
 21
-244.999996
 31
0.0
  0
LINE
  5
B4
330
1F
100
AcDbEntity
  8
Výchozí
 62
     7
420
 16777215
370
    35
100
AcDbLine
 10
143.6000369999999
 20
-241.349997
 30
0.0
 11
143.6000369999999
 21
-244.999996
 31
0.0
  0
LINE
  5
B5
330
1F
100
AcDbEntity
  8
Výchozí
 62
     7
420
 16777215
370
    35
100
AcDbLine
 10
169.899964
 20
-241.349997
 30
0.0
 11
143.6000369999999
 21
-241.349997
 31
0.0
  0
LINE
  5
B6
330
1F
100
AcDbEntity
  8
Výchozí
 62
     7
420
 16777215
370
    35
100
AcDbLine
 10
169.899964
 20
-244.999996
 30
0.0
 11
169.899964
 21
-241.349997
 31
0.0
  0
CIRCLE
  5
B7
330
1F
100
AcDbEntity
  8
Výchozí
 62
     7
420
 16777215
370
    35
100
AcDbCircle
 10
14.75
 20
-222.499996
 30
0.0
 40
1.75
  0
CIRCLE
  5
B8
330
1F
100
AcDbEntity
  8
Výchozí
 62
     7
420
 16777215
370
    35
100
AcDbCircle
 10
195.25
 20
-222.499996
 30
0.0
 40
1.75
  0
CIRCLE
  5
B9
330
1F
100
AcDbEntity
  8
Výchozí
 62
     7
420
 16777215
370
    35
100
AcDbCircle
 10
53.25
 20
-236.499996
 30
0.0
 40
1.75
  0
CIRCLE
  5
BA
330
1F
100
AcDbEntity
  8
Výchozí
 62
     7
420
 16777215
370
    35
100
AcDbCircle
 10
156.75
 20
-236.499996
 30
0.0
 40
1.75
  0
ENDSEC
  0
SECTION
  2
OBJECTS
  0
DICTIONARY
  5
C
330
0
100
AcDbDictionary
281
     1
  3
ACAD_GROUP
350
D
  3
ACAD_LAYOUT
350
1A
  3
ACAD_MATERIAL
350
3B
  3
ACAD_MLEADERSTYLE
350
E2
  3
ACAD_MLINESTYLE
350
17
  3
ACAD_PLOTSETTINGS
350
19
  3
ACAD_PLOTSTYLENAME
350
E
  3
ACAD_TABLESTYLE
350
E1
  3
ACAD_VISUALSTYLE
350
2A
  0
DICTIONARY
  5
D
102
{ACAD_REACTORS
330
C
102
}
330
C
100
AcDbDictionary
281
     1
  0
DICTIONARY
  5
1A
102
{ACAD_REACTORS
330
C
102
}
330
C
100
AcDbDictionary
281
     1
  3
Layout1
350
1E
  3
Layout2
350
26
  3
Model
350
22
  0
DICTIONARY
  5
3B
102
{ACAD_REACTORS
330
C
102
}
330
C
100
AcDbDictionary
281
     1
  3
ByBlock
350
3D
  3
ByLayer
350
3C
  3
Global
350
3E
  0
DICTIONARY
  5
E2
102
{ACAD_REACTORS
330
C
102
}
330
C
100
AcDbDictionary
281
     1
  0
DICTIONARY
  5
17
102
{ACAD_REACTORS
330
C
102
}
330
C
100
AcDbDictionary
281
     1
  3
Standard
350
18
  0
DICTIONARY
  5
19
102
{ACAD_REACTORS
330
C
102
}
330
C
100
AcDbDictionary
281
     1
  0
ACDBDICTIONARYWDFLT
  5
E
102
{ACAD_REACTORS
330
C
102
}
330
C
100
AcDbDictionary
281
     1
  3
Normal
350
F
100
AcDbDictionaryWithDefault
340
F
  0
DICTIONARY
  5
E1
102
{ACAD_REACTORS
330
C
102
}
330
C
100
AcDbDictionary
281
     1
  0
DICTIONARY
  5
2A
102
{ACAD_REACTORS
330
C
102
}
330
C
100
AcDbDictionary
281
     1
  3
2dWireframe
350
2F
  3
3D Hidden
350
31
  3
3dWireframe
350
30
  3
Basic
350
32
  3
Brighten
350
36
  3
ColorChange
350
3A
  3
Conceptual
350
34
  3
Dim
350
35
  3
Facepattern
350
39
  3
Flat
350
2B
  3
FlatWithEdges
350
2C
  3
Gouraud
350
2D
  3
GouraudWithEdges
350
2E
  3
Linepattern
350
38
  3
Realistic
350
33
  3
Thicken
350
37
  0
LAYOUT
  5
1E
102
{ACAD_REACTORS
330
1A
102
}
330
1A
100
AcDbPlotSettings
  1

  2
none_device
  4

  6

 40
0.0
 41
0.0
 42
0.0
 43
0.0
 44
0.0
 45
0.0
 46
0.0
 47
0.0
 48
0.0
 49
0.0
140
0.0
141
0.0
142
1.0
143
1.0
 70
   688
 72
     0
 73
     0
 74
     5
  7

 75
    16
 76
     0
 77
     2
 78
   300
147
1.0
148
0.0
149
0.0
100
AcDbLayout
  1
Layout1
 70
     1
 71
     1
 10
0.0
 20
0.0
 11
12.0
 21
9.0
 12
0.0
 22
0.0
 32
0.0
 14
1.000000000000000E+20
 24
1.000000000000000E+20
 34
1.000000000000000E+20
 15
-1.000000000000000E+20
 25
-1.000000000000000E+20
 35
-1.000000000000000E+20
146
0.0
 13
0.0
 23
0.0
 33
0.0
 16
1.0
 26
0.0
 36
0.0
 17
0.0
 27
1.0
 37
0.0
 76
     0
330
1B
  0
LAYOUT
  5
26
102
{ACAD_REACTORS
330
1A
102
}
330
1A
100
AcDbPlotSettings
  1

  2
none_device
  4

  6

 40
0.0
 41
0.0
 42
0.0
 43
0.0
 44
0.0
 45
0.0
 46
0.0
 47
0.0
 48
0.0
 49
0.0
140
0.0
141
0.0
142
1.0
143
1.0
 70
   688
 72
     0
 73
     0
 74
     5
  7

 75
    16
 76
     0
 77
     2
 78
   300
147
1.0
148
0.0
149
0.0
100
AcDbLayout
  1
Layout2
 70
     1
 71
     2
 10
0.0
 20
0.0
 11
0.0
 21
0.0
 12
0.0
 22
0.0
 32
0.0
 14
0.0
 24
0.0
 34
0.0
 15
0.0
 25
0.0
 35
0.0
146
0.0
 13
0.0
 23
0.0
 33
0.0
 16
1.0
 26
0.0
 36
0.0
 17
0.0
 27
1.0
 37
0.0
 76
     0
330
23
  0
LAYOUT
  5
22
102
{ACAD_REACTORS
330
1A
102
}
330
1A
100
AcDbPlotSettings
  1

  2
none_device
  4

  6

 40
0.0
 41
0.0
 42
0.0
 43
0.0
 44
0.0
 45
0.0
 46
0.0
 47
0.0
 48
0.0
 49
0.0
140
0.0
141
0.0
142
1.0
143
1.0
 70
  1712
 72
     0
 73
     0
 74
     0
  7

 75
     0
 76
     0
 77
     2
 78
   300
147
1.0
148
0.0
149
0.0
100
AcDbLayout
  1
Model
 70
     1
 71
     0
 10
0.0
 20
0.0
 11
12.0
 21
9.0
 12
0.0
 22
0.0
 32
0.0
 14
-3.200011999999958
 24
-244.999996
 34
0.0
 15
223.300003
 25
0.0
 35
0.0
146
0.0
 13
0.0
 23
0.0
 33
0.0
 16
1.0
 26
0.0
 36
0.0
 17
0.0
 27
1.0
 37
0.0
 76
     0
330
1F
331
29
  0
MATERIAL
  5
3D
102
{ACAD_REACTORS
330
3B
102
}
102
{ACAD_XDICTIONARY
360
DD
102
}
330
3B
100
AcDbMaterial
  1
ByBlock
  0
MATERIAL
  5
3C
102
{ACAD_REACTORS
330
3B
102
}
102
{ACAD_XDICTIONARY
360
DB
102
}
330
3B
100
AcDbMaterial
  1
ByLayer
  0
MATERIAL
  5
3E
102
{ACAD_REACTORS
330
3B
102
}
102
{ACAD_XDICTIONARY
360
DF
102
}
330
3B
100
AcDbMaterial
  1
Global
  0
MLINESTYLE
  5
18
102
{ACAD_REACTORS
330
17
102
}
330
17
100
AcDbMlineStyle
  2
Standard
 70
     0
  3

 62
   256
 51
90.0
 52
90.0
 71
     2
 49
0.5
 62
   256
  6
BYLAYER
 49
-0.5
 62
   256
  6
BYLAYER
  0
ACDBPLACEHOLDER
  5
F
102
{ACAD_REACTORS
330
E
102
}
330
E
  0
VISUALSTYLE
  5
2F
102
{ACAD_REACTORS
330
2A
102
}
102
{ACAD_XDICTIONARY
360
C3
102
}
330
2A
100
AcDbVisualStyle
  2
2dWireframe
 70
     4
 71
     0
 72
     2
 73
     0
 90
        0
 40
-0.6
 41
-30.0
 62
     5
 63
     7
421
 16777215
 74
     1
 91
        4
 64
     7
 65
   257
 75
     1
175
     1
 42
1.0
 92
        0
 66
   257
 43
1.0
 76
     1
 77
     6
 78
     2
 67
     7
 79
     5
170
     0
171
     0
290
     0
174
     0
 93
        1
 44
0.0
173
     0
291
     0
 45
0.0
1001
ACAD
1000
AcDbSavedByObjectVersion
1070
     0
  0
VISUALSTYLE
  5
31
102
{ACAD_REACTORS
330
2A
102
}
102
{ACAD_XDICTIONARY
360
C7
102
}
330
2A
100
AcDbVisualStyle
  2
3D Hidden
 70
     6
 71
     1
 72
     2
 73
     2
 90
        0
 40
-0.6
 41
-30.0
 62
     5
 63
     7
421
 16777215
 74
     2
 91
        2
 64
     7
 65
   257
 75
     2
175
     1
 42
40.0
 92
        0
 66
   257
 43
1.0
 76
     1
 77
     6
 78
     2
 67
     7
 79
     3
170
     0
171
     0
290
     0
174
     0
 93
        1
 44
0.0
173
     0
291
     0
 45
0.0
1001
ACAD
1000
AcDbSavedByObjectVersion
1070
     0
  0
VISUALSTYLE
  5
30
102
{ACAD_REACTORS
330
2A
102
}
102
{ACAD_XDICTIONARY
360
C5
102
}
330
2A
100
AcDbVisualStyle
  2
3dWireframe
 70
     5
 71
     0
 72
     2
 73
     0
 90
        0
 40
-0.6
 41
-30.0
 62
     5
 63
     7
421
 16777215
 74
     1
 91
        4
 64
     7
 65
   257
 75
     1
175
     1
 42
1.0
 92
        0
 66
   257
 43
1.0
 76
     1
 77
     6
 78
     2
 67
     7
 79
     5
170
     0
171
     0
290
     0
174
     0
 93
        1
 44
0.0
173
     0
291
     0
 45
0.0
1001
ACAD
1000
AcDbSavedByObjectVersion
1070
     0
  0
VISUALSTYLE
  5
32
102
{ACAD_REACTORS
330
2A
102
}
102
{ACAD_XDICTIONARY
360
C9
102
}
330
2A
100
AcDbVisualStyle
  2
Basic
 70
     7
 71
     1
 72
     0
 73
     1
 90
        0
 40
-0.6
 41
-30.0
 62
     5
 63
     7
421
 16777215
 74
     0
 91
        4
 64
     7
 65
   257
 75
     1
175
     1
 42
1.0
 92
        8
 66
     7
 43
1.0
 76
     1
 77
     6
 78
     2
 67
     7
 79
     5
170
     0
171
     0
290
     0
174
     0
 93
        1
 44
0.0
173
     0
291
     1
 45
0.0
1001
ACAD
1000
AcDbSavedByObjectVersion
1070
     0
  0
VISUALSTYLE
  5
36
102
{ACAD_REACTORS
330
2A
102
}
102
{ACAD_XDICTIONARY
360
D1
102
}
330
2A
100
AcDbVisualStyle
  2
Brighten
 70
    12
 71
     2
 72
     2
 73
     0
 90
        0
 40
-0.6
 41
-30.0
 62
     5
 63
     7
421
 16777215
 74
     1
 91
        4
 64
     7
 65
   257
 75
     1
175
     1
 42
1.0
 92
        8
 66
     7
 43
1.0
 76
     1
 77
     6
 78
     2
 67
     7
 79
     5
170
     0
171
     0
290
     0
174
     0
 93
        1
 44
50.0
173
     0
291
     1
 45
0.0
1001
ACAD
1000
AcDbSavedByObjectVersion
1070
     0
  0
VISUALSTYLE
  5
3A
102
{ACAD_REACTORS
330
2A
102
}
102
{ACAD_XDICTIONARY
360
D9
102
}
330
2A
100
AcDbVisualStyle
  2
ColorChange
 70
    16
 71
     2
 72
     2
 73
     3
 90
        0
 40
-0.6
 41
-30.0
 62
     5
 63
     8
421
  8421504
 74
     1
 91
        4
 64
     7
 65
   257
 75
     1
175
     1
 42
1.0
 92
        8
 66
     8
424
  8421504
 43
1.0
 76
     1
 77
     6
 78
     2
 67
     7
 79
     5
170
     0
171
     0
290
     0
174
     0
 93
        1
 44
0.0
173
     0
291
     1
 45
0.0
1001
ACAD
1000
AcDbSavedByObjectVersion
1070
     0
  0
VISUALSTYLE
  5
34
102
{ACAD_REACTORS
330
2A
102
}
102
{ACAD_XDICTIONARY
360
CD
102
}
330
2A
100
AcDbVisualStyle
  2
Conceptual
 70
     9
 71
     3
 72
     2
 73
     0
 90
        0
 40
-0.6
 41
-30.0
 62
     5
 63
     7
421
 16777215
 74
     2
 91
        2
 64
     7
 65
   257
 75
     1
175
     1
 42
40.0
 92
        8
 66
     7
 43
1.0
 76
     1
 77
     6
 78
     2
 67
     7
 79
     3
170
     0
171
     0
290
     0
174
     0
 93
        1
 44
0.0
173
     0
291
     0
 45
0.0
1001
ACAD
1000
AcDbSavedByObjectVersion
1070
     0
  0
VISUALSTYLE
  5
35
102
{ACAD_REACTORS
330
2A
102
}
102
{ACAD_XDICTIONARY
360
CF
102
}
330
2A
100
AcDbVisualStyle
  2
Dim
 70
    11
 71
     2
 72
     2
 73
     0
 90
        0
 40
-0.6
 41
-30.0
 62
     5
 63
     7
421
 16777215
 74
     1
 91
        4
 64
     7
 65
   257
 75
     1
175
     1
 42
1.0
 92
        8
 66
     7
 43
1.0
 76
     1
 77
     6
 78
     2
 67
     7
 79
     5
170
     0
171
     0
290
     0
174
     0
 93
        1
 44
-50.0
173
     0
291
     1
 45
0.0
1001
ACAD
1000
AcDbSavedByObjectVersion
1070
     0
  0
VISUALSTYLE
  5
39
102
{ACAD_REACTORS
330
2A
102
}
102
{ACAD_XDICTIONARY
360
D7
102
}
330
2A
100
AcDbVisualStyle
  2
Facepattern
 70
    15
 71
     2
 72
     2
 73
     0
 90
        0
 40
-0.6
 41
-30.0
 62
     5
 63
     7
421
 16777215
 74
     1
 91
        4
 64
     7
 65
   257
 75
     1
175
     1
 42
1.0
 92
        8
 66
     7
 43
1.0
 76
     1
 77
     6
 78
     2
 67
     7
 79
     5
170
     0
171
     0
290
     0
174
     0
 93
        1
 44
0.0
173
     0
291
     1
 45
0.0
1001
ACAD
1000
AcDbSavedByObjectVersion
1070
     0
  0
VISUALSTYLE
  5
2B
102
{ACAD_REACTORS
330
2A
102
}
102
{ACAD_XDICTIONARY
360
BB
102
}
330
2A
100
AcDbVisualStyle
  2
Flat
 70
     0
 71
     2
 72
     1
 73
     1
 90
        2
 40
-0.6
 41
30.0
 62
     5
 63
     7
421
 16777215
 74
     0
 91
        4
 64
     7
 65
   257
 75
     1
175
     1
 42
1.0
 92
        8
 66
     7
 43
1.0
 76
     1
 77
     6
 78
     2
 67
     7
 79
     5
170
     0
171
     0
290
     0
174
     0
 93
       13
 44
0.0
173
     0
291
     1
 45
0.0
1001
ACAD
1000
AcDbSavedByObjectVersion
1070
     0
  0
VISUALSTYLE
  5
2C
102
{ACAD_REACTORS
330
2A
102
}
102
{ACAD_XDICTIONARY
360
BD
102
}
330
2A
100
AcDbVisualStyle
  2
FlatWithEdges
 70
     1
 71
     2
 72
     1
 73
     1
 90
        2
 40
-0.6
 41
30.0
 62
     5
 63
     7
421
 16777215
 74
     1
 91
        4
 64
     7
 65
   257
 75
     1
175
     1
 42
1.0
 92
        0
 66
   257
 43
1.0
 76
     1
 77
     6
 78
     2
 67
     7
 79
     5
170
     0
171
     0
290
     0
174
     0
 93
       13
 44
0.0
173
     0
291
     1
 45
0.0
1001
ACAD
1000
AcDbSavedByObjectVersion
1070
     0
  0
VISUALSTYLE
  5
2D
102
{ACAD_REACTORS
330
2A
102
}
102
{ACAD_XDICTIONARY
360
BF
102
}
330
2A
100
AcDbVisualStyle
  2
Gouraud
 70
     2
 71
     2
 72
     2
 73
     1
 90
        2
 40
-0.6
 41
30.0
 62
     5
 63
     7
421
 16777215
 74
     0
 91
        4
 64
     7
 65
   257
 75
     1
175
     1
 42
1.0
 92
        0
 66
     7
 43
1.0
 76
     1
 77
     6
 78
     2
 67
     7
 79
     5
170
     0
171
     0
290
     0
174
     0
 93
       13
 44
0.0
173
     0
291
     1
 45
0.0
1001
ACAD
1000
AcDbSavedByObjectVersion
1070
     0
  0
VISUALSTYLE
  5
2E
102
{ACAD_REACTORS
330
2A
102
}
102
{ACAD_XDICTIONARY
360
C1
102
}
330
2A
100
AcDbVisualStyle
  2
GouraudWithEdges
 70
     3
 71
     2
 72
     2
 73
     1
 90
        2
 40
-0.6
 41
30.0
 62
     5
 63
     7
421
 16777215
 74
     1
 91
        4
 64
     7
 65
   257
 75
     1
175
     1
 42
1.0
 92
        0
 66
   257
 43
1.0
 76
     1
 77
     6
 78
     2
 67
     7
 79
     5
170
     0
171
     0
290
     0
174
     0
 93
       13
 44
0.0
173
     0
291
     1
 45
0.0
1001
ACAD
1000
AcDbSavedByObjectVersion
1070
     0
  0
VISUALSTYLE
  5
38
102
{ACAD_REACTORS
330
2A
102
}
102
{ACAD_XDICTIONARY
360
D5
102
}
330
2A
100
AcDbVisualStyle
  2
Linepattern
 70
    14
 71
     2
 72
     2
 73
     0
 90
        0
 40
-0.6
 41
-30.0
 62
     5
 63
     7
421
 16777215
 74
     1
 91
        4
 64
     7
 65
   257
 75
     7
175
     7
 42
1.0
 92
        8
 66
     7
 43
1.0
 76
     1
 77
     6
 78
     2
 67
     7
 79
     5
170
     0
171
     0
290
     0
174
     0
 93
        1
 44
0.0
173
     0
291
     1
 45
0.0
1001
ACAD
1000
AcDbSavedByObjectVersion
1070
     0
  0
VISUALSTYLE
  5
33
102
{ACAD_REACTORS
330
2A
102
}
102
{ACAD_XDICTIONARY
360
CB
102
}
330
2A
100
AcDbVisualStyle
  2
Realistic
 70
     8
 71
     2
 72
     2
 73
     0
 90
        0
 40
-0.6
 41
-30.0
 62
     5
 63
     7
421
 16777215
 74
     1
 91
        0
 64
     7
 65
   257
 75
     1
175
     1
 42
1.0
 92
        8
 66
     8
424
  7895160
 43
1.0
 76
     1
 77
     6
 78
     2
 67
     7
 79
     5
170
     0
171
     0
290
     0
174
     0
 93
       13
 44
0.0
173
     0
291
     0
 45
0.0
1001
ACAD
1000
AcDbSavedByObjectVersion
1070
     0
  0
VISUALSTYLE
  5
37
102
{ACAD_REACTORS
330
2A
102
}
102
{ACAD_XDICTIONARY
360
D3
102
}
330
2A
100
AcDbVisualStyle
  2
Thicken
 70
    13
 71
     2
 72
     2
 73
     0
 90
        0
 40
-0.6
 41
-30.0
 62
     5
 63
     7
421
 16777215
 74
     1
 91
        4
 64
     7
 65
   257
 75
     1
175
     1
 42
1.0
 92
       12
 66
     7
 43
1.0
 76
     1
 77
     6
 78
     2
 67
     7
 79
     5
170
     0
171
     0
290
     0
174
     0
 93
        1
 44
0.0
173
     0
291
     1
 45
0.0
1001
ACAD
1000
AcDbSavedByObjectVersion
1070
     0
  0
DICTIONARY
  5
DD
330
3D
100
AcDbDictionary
280
     1
281
     1
  3
ACAD_XREC_ROUNDTRIP
360
DE
  0
DICTIONARY
  5
DB
330
3C
100
AcDbDictionary
280
     1
281
     1
  3
ACAD_XREC_ROUNDTRIP
360
DC
  0
DICTIONARY
  5
DF
330
3E
100
AcDbDictionary
280
     1
281
     1
  3
ACAD_XREC_ROUNDTRIP
360
E0
  0
DICTIONARY
  5
C3
330
2F
100
AcDbDictionary
280
     1
281
     1
  3
ACAD_XREC_ROUNDTRIP
360
C4
  0
DICTIONARY
  5
C7
330
31
100
AcDbDictionary
280
     1
281
     1
  3
ACAD_XREC_ROUNDTRIP
360
C8
  0
DICTIONARY
  5
C5
330
30
100
AcDbDictionary
280
     1
281
     1
  3
ACAD_XREC_ROUNDTRIP
360
C6
  0
DICTIONARY
  5
C9
330
32
100
AcDbDictionary
280
     1
281
     1
  3
ACAD_XREC_ROUNDTRIP
360
CA
  0
DICTIONARY
  5
D1
330
36
100
AcDbDictionary
280
     1
281
     1
  3
ACAD_XREC_ROUNDTRIP
360
D2
  0
DICTIONARY
  5
D9
330
3A
100
AcDbDictionary
280
     1
281
     1
  3
ACAD_XREC_ROUNDTRIP
360
DA
  0
DICTIONARY
  5
CD
330
34
100
AcDbDictionary
280
     1
281
     1
  3
ACAD_XREC_ROUNDTRIP
360
CE
  0
DICTIONARY
  5
CF
330
35
100
AcDbDictionary
280
     1
281
     1
  3
ACAD_XREC_ROUNDTRIP
360
D0
  0
DICTIONARY
  5
D7
330
39
100
AcDbDictionary
280
     1
281
     1
  3
ACAD_XREC_ROUNDTRIP
360
D8
  0
DICTIONARY
  5
BB
330
2B
100
AcDbDictionary
280
     1
281
     1
  3
ACAD_XREC_ROUNDTRIP
360
BC
  0
DICTIONARY
  5
BD
330
2C
100
AcDbDictionary
280
     1
281
     1
  3
ACAD_XREC_ROUNDTRIP
360
BE
  0
DICTIONARY
  5
BF
330
2D
100
AcDbDictionary
280
     1
281
     1
  3
ACAD_XREC_ROUNDTRIP
360
C0
  0
DICTIONARY
  5
C1
330
2E
100
AcDbDictionary
280
     1
281
     1
  3
ACAD_XREC_ROUNDTRIP
360
C2
  0
DICTIONARY
  5
D5
330
38
100
AcDbDictionary
280
     1
281
     1
  3
ACAD_XREC_ROUNDTRIP
360
D6
  0
DICTIONARY
  5
CB
330
33
100
AcDbDictionary
280
     1
281
     1
  3
ACAD_XREC_ROUNDTRIP
360
CC
  0
DICTIONARY
  5
D3
330
37
100
AcDbDictionary
280
     1
281
     1
  3
ACAD_XREC_ROUNDTRIP
360
D4
  0
XRECORD
  5
DE
102
{ACAD_REACTORS
330
DD
102
}
330
DD
100
AcDbXrecord
280
     1
102
MATERIAL
148
0.0
149
0.0
149
0.0
 93
        0
 94
      127
282
     0
 72
     1
 77
     1
171
     1
175
     1
179
     1
273
     0
  0
XRECORD
  5
DC
102
{ACAD_REACTORS
330
DB
102
}
330
DB
100
AcDbXrecord
280
     1
102
MATERIAL
148
0.0
149
0.0
149
0.0
 93
        0
 94
      127
282
     0
 72
     1
 77
     1
171
     1
175
     1
179
     1
273
     0
  0
XRECORD
  5
E0
102
{ACAD_REACTORS
330
DF
102
}
330
DF
100
AcDbXrecord
280
     1
102
MATERIAL
148
0.0
149
0.0
149
0.0
 93
        0
 94
      127
282
     0
 72
     1
 77
     1
171
     1
175
     1
179
     1
273
     0
  0
XRECORD
  5
C4
102
{ACAD_REACTORS
330
C3
102
}
330
C3
100
AcDbXrecord
280
     1
102
RTVSPropertyOp0
 70
     1
102
RTVSPropertyOp1
 70
     1
102
RTVSPropertyOp2
 70
     1
102
RTVSPropertyOp3
 70
     1
102
RTVSPropertyOp4
 70
     1
102
RTVSPropertyOp5
 70
     1
102
RTVSPropertyOp6
 70
     1
102
RTVSPropertyOp7
 70
     1
102
RTVSPropertyOp8
 70
     1
102
RTVSPropertyOp9
 70
     1
102
RTVSPropertyOp10
 70
     1
102
RTVSPropertyOp11
 70
     1
102
RTVSPropertyOp12
 70
     1
102
RTVSPropertyOp13
 70
     1
102
RTVSPropertyOp14
 70
     1
102
RTVSPropertyOp15
 70
     1
102
RTVSPropertyOp16
 70
     1
102
RTVSPropertyOp17
 70
     1
102
RTVSPropertyOp18
 70
     1
102
RTVSPropertyOp19
 70
     1
102
RTVSPropertyOp20
 70
     1
102
RTVSPropertyOp21
 70
     1
102
RTVSPropertyOp22
 70
     1
102
RTVSPropertyOp23
 70
     1
102
RTVSPropertyOp24
 70
     1
102
RTVSPropertyOp25
 70
     1
102
RTVSPropertyOp26
 70
     1
102
RTVSPropertyOp27
 70
     1
102
RTVSPropertyOp28
 70
     1
102
RTVSPropertyOp29
 70
     1
102
RTVSPropertyOp30
 70
     1
102
RTVSPropertyOp31
 70
     1
102
RTVSPropertyOp32
 70
     1
  0
XRECORD
  5
C8
102
{ACAD_REACTORS
330
C7
102
}
330
C7
100
AcDbXrecord
280
     1
102
RTVSPropertyOp0
 70
     1
102
RTVSPropertyOp1
 70
     1
102
RTVSPropertyOp2
 70
     1
102
RTVSPropertyOp3
 70
     1
102
RTVSPropertyOp4
 70
     1
102
RTVSPropertyOp5
 70
     1
102
RTVSPropertyOp6
 70
     1
102
RTVSPropertyOp7
 70
     1
102
RTVSPropertyOp8
 70
     1
102
RTVSPropertyOp9
 70
     1
102
RTVSPropertyOp10
 70
     1
102
RTVSPropertyOp11
 70
     1
102
RTVSPropertyOp12
 70
     1
102
RTVSPropertyOp13
 70
     1
102
RTVSPropertyOp14
 70
     1
102
RTVSPropertyOp15
 70
     1
102
RTVSPropertyOp16
 70
     1
102
RTVSPropertyOp17
 70
     1
102
RTVSPropertyOp18
 70
     1
102
RTVSPropertyOp19
 70
     1
102
RTVSPropertyOp20
 70
     1
102
RTVSPropertyOp21
 70
     1
102
RTVSPropertyOp22
 70
     1
102
RTVSPropertyOp23
 70
     1
102
RTVSPropertyOp24
 70
     1
102
RTVSPropertyOp25
 70
     1
102
RTVSPropertyOp26
 70
     1
102
RTVSPropertyOp27
 70
     1
102
RTVSPropertyOp28
 70
     1
102
RTVSPropertyOp29
 70
     1
102
RTVSPropertyOp30
 70
     1
102
RTVSPropertyOp31
 70
     1
102
RTVSPropertyOp32
 70
     1
  0
XRECORD
  5
C6
102
{ACAD_REACTORS
330
C5
102
}
330
C5
100
AcDbXrecord
280
     1
102
RTVSPropertyOp0
 70
     1
102
RTVSPropertyOp1
 70
     1
102
RTVSPropertyOp2
 70
     1
102
RTVSPropertyOp3
 70
     1
102
RTVSPropertyOp4
 70
     1
102
RTVSPropertyOp5
 70
     1
102
RTVSPropertyOp6
 70
     1
102
RTVSPropertyOp7
 70
     1
102
RTVSPropertyOp8
 70
     1
102
RTVSPropertyOp9
 70
     1
102
RTVSPropertyOp10
 70
     1
102
RTVSPropertyOp11
 70
     1
102
RTVSPropertyOp12
 70
     1
102
RTVSPropertyOp13
 70
     1
102
RTVSPropertyOp14
 70
     1
102
RTVSPropertyOp15
 70
     1
102
RTVSPropertyOp16
 70
     1
102
RTVSPropertyOp17
 70
     1
102
RTVSPropertyOp18
 70
     1
102
RTVSPropertyOp19
 70
     1
102
RTVSPropertyOp20
 70
     1
102
RTVSPropertyOp21
 70
     1
102
RTVSPropertyOp22
 70
     1
102
RTVSPropertyOp23
 70
     1
102
RTVSPropertyOp24
 70
     1
102
RTVSPropertyOp25
 70
     1
102
RTVSPropertyOp26
 70
     1
102
RTVSPropertyOp27
 70
     1
102
RTVSPropertyOp28
 70
     1
102
RTVSPropertyOp29
 70
     1
102
RTVSPropertyOp30
 70
     1
102
RTVSPropertyOp31
 70
     1
102
RTVSPropertyOp32
 70
     1
  0
XRECORD
  5
CA
102
{ACAD_REACTORS
330
C9
102
}
330
C9
100
AcDbXrecord
280
     1
102
RTVSPropertyOp0
 70
     1
102
RTVSPropertyOp1
 70
     1
102
RTVSPropertyOp2
 70
     1
102
RTVSPropertyOp3
 70
     1
102
RTVSPropertyOp4
 70
     1
102
RTVSPropertyOp5
 70
     1
102
RTVSPropertyOp6
 70
     1
102
RTVSPropertyOp7
 70
     1
102
RTVSPropertyOp8
 70
     1
102
RTVSPropertyOp9
 70
     1
102
RTVSPropertyOp10
 70
     1
102
RTVSPropertyOp11
 70
     1
102
RTVSPropertyOp12
 70
     1
102
RTVSPropertyOp13
 70
     1
102
RTVSPropertyOp14
 70
     1
102
RTVSPropertyOp15
 70
     1
102
RTVSPropertyOp16
 70
     1
102
RTVSPropertyOp17
 70
     1
102
RTVSPropertyOp18
 70
     1
102
RTVSPropertyOp19
 70
     1
102
RTVSPropertyOp20
 70
     1
102
RTVSPropertyOp21
 70
     1
102
RTVSPropertyOp22
 70
     1
102
RTVSPropertyOp23
 70
     1
102
RTVSPropertyOp24
 70
     1
102
RTVSPropertyOp25
 70
     1
102
RTVSPropertyOp26
 70
     1
102
RTVSPropertyOp27
 70
     1
102
RTVSPropertyOp28
 70
     1
102
RTVSPropertyOp29
 70
     1
102
RTVSPropertyOp30
 70
     1
102
RTVSPropertyOp31
 70
     1
102
RTVSPropertyOp32
 70
     1
  0
XRECORD
  5
D2
102
{ACAD_REACTORS
330
D1
102
}
330
D1
100
AcDbXrecord
280
     1
102
RTVSPropertyOp0
 70
     1
102
RTVSPropertyOp1
 70
     1
102
RTVSPropertyOp2
 70
     1
102
RTVSPropertyOp3
 70
     1
102
RTVSPropertyOp4
 70
     1
102
RTVSPropertyOp5
 70
     1
102
RTVSPropertyOp6
 70
     1
102
RTVSPropertyOp7
 70
     1
102
RTVSPropertyOp8
 70
     1
102
RTVSPropertyOp9
 70
     1
102
RTVSPropertyOp10
 70
     1
102
RTVSPropertyOp11
 70
     1
102
RTVSPropertyOp12
 70
     1
102
RTVSPropertyOp13
 70
     1
102
RTVSPropertyOp14
 70
     1
102
RTVSPropertyOp15
 70
     1
102
RTVSPropertyOp16
 70
     1
102
RTVSPropertyOp17
 70
     1
102
RTVSPropertyOp18
 70
     1
102
RTVSPropertyOp19
 70
     1
102
RTVSPropertyOp20
 70
     1
102
RTVSPropertyOp21
 70
     1
102
RTVSPropertyOp22
 70
     1
102
RTVSPropertyOp23
 70
     1
102
RTVSPropertyOp24
 70
     1
102
RTVSPropertyOp25
 70
     1
102
RTVSPropertyOp26
 70
     1
102
RTVSPropertyOp27
 70
     1
102
RTVSPropertyOp28
 70
     1
102
RTVSPropertyOp29
 70
     1
102
RTVSPropertyOp30
 70
     1
102
RTVSPropertyOp31
 70
     1
102
RTVSPropertyOp32
 70
     1
  0
XRECORD
  5
DA
102
{ACAD_REACTORS
330
D9
102
}
330
D9
100
AcDbXrecord
280
     1
102
RTVSPropertyOp0
 70
     1
102
RTVSPropertyOp1
 70
     1
102
RTVSPropertyOp2
 70
     1
102
RTVSPropertyOp3
 70
     1
102
RTVSPropertyOp4
 70
     1
102
RTVSPropertyOp5
 70
     1
102
RTVSPropertyOp6
 70
     1
102
RTVSPropertyOp7
 70
     1
102
RTVSPropertyOp8
 70
     1
102
RTVSPropertyOp9
 70
     1
102
RTVSPropertyOp10
 70
     1
102
RTVSPropertyOp11
 70
     1
102
RTVSPropertyOp12
 70
     1
102
RTVSPropertyOp13
 70
     1
102
RTVSPropertyOp14
 70
     1
102
RTVSPropertyOp15
 70
     1
102
RTVSPropertyOp16
 70
     1
102
RTVSPropertyOp17
 70
     1
102
RTVSPropertyOp18
 70
     1
102
RTVSPropertyOp19
 70
     1
102
RTVSPropertyOp20
 70
     1
102
RTVSPropertyOp21
 70
     1
102
RTVSPropertyOp22
 70
     1
102
RTVSPropertyOp23
 70
     1
102
RTVSPropertyOp24
 70
     1
102
RTVSPropertyOp25
 70
     1
102
RTVSPropertyOp26
 70
     1
102
RTVSPropertyOp27
 70
     1
102
RTVSPropertyOp28
 70
     1
102
RTVSPropertyOp29
 70
     1
102
RTVSPropertyOp30
 70
     1
102
RTVSPropertyOp31
 70
     1
102
RTVSPropertyOp32
 70
     1
  0
XRECORD
  5
CE
102
{ACAD_REACTORS
330
CD
102
}
330
CD
100
AcDbXrecord
280
     1
102
RTVSPropertyOp0
 70
     1
102
RTVSPropertyOp1
 70
     1
102
RTVSPropertyOp2
 70
     1
102
RTVSPropertyOp3
 70
     1
102
RTVSPropertyOp4
 70
     1
102
RTVSPropertyOp5
 70
     1
102
RTVSPropertyOp6
 70
     1
102
RTVSPropertyOp7
 70
     1
102
RTVSPropertyOp8
 70
     1
102
RTVSPropertyOp9
 70
     1
102
RTVSPropertyOp10
 70
     1
102
RTVSPropertyOp11
 70
     1
102
RTVSPropertyOp12
 70
     1
102
RTVSPropertyOp13
 70
     1
102
RTVSPropertyOp14
 70
     1
102
RTVSPropertyOp15
 70
     1
102
RTVSPropertyOp16
 70
     1
102
RTVSPropertyOp17
 70
     1
102
RTVSPropertyOp18
 70
     1
102
RTVSPropertyOp19
 70
     1
102
RTVSPropertyOp20
 70
     1
102
RTVSPropertyOp21
 70
     1
102
RTVSPropertyOp22
 70
     1
102
RTVSPropertyOp23
 70
     1
102
RTVSPropertyOp24
 70
     1
102
RTVSPropertyOp25
 70
     1
102
RTVSPropertyOp26
 70
     1
102
RTVSPropertyOp27
 70
     1
102
RTVSPropertyOp28
 70
     1
102
RTVSPropertyOp29
 70
     1
102
RTVSPropertyOp30
 70
     1
102
RTVSPropertyOp31
 70
     1
102
RTVSPropertyOp32
 70
     1
  0
XRECORD
  5
D0
102
{ACAD_REACTORS
330
CF
102
}
330
CF
100
AcDbXrecord
280
     1
102
RTVSPropertyOp0
 70
     1
102
RTVSPropertyOp1
 70
     1
102
RTVSPropertyOp2
 70
     1
102
RTVSPropertyOp3
 70
     1
102
RTVSPropertyOp4
 70
     1
102
RTVSPropertyOp5
 70
     1
102
RTVSPropertyOp6
 70
     1
102
RTVSPropertyOp7
 70
     1
102
RTVSPropertyOp8
 70
     1
102
RTVSPropertyOp9
 70
     1
102
RTVSPropertyOp10
 70
     1
102
RTVSPropertyOp11
 70
     1
102
RTVSPropertyOp12
 70
     1
102
RTVSPropertyOp13
 70
     1
102
RTVSPropertyOp14
 70
     1
102
RTVSPropertyOp15
 70
     1
102
RTVSPropertyOp16
 70
     1
102
RTVSPropertyOp17
 70
     1
102
RTVSPropertyOp18
 70
     1
102
RTVSPropertyOp19
 70
     1
102
RTVSPropertyOp20
 70
     1
102
RTVSPropertyOp21
 70
     1
102
RTVSPropertyOp22
 70
     1
102
RTVSPropertyOp23
 70
     1
102
RTVSPropertyOp24
 70
     1
102
RTVSPropertyOp25
 70
     1
102
RTVSPropertyOp26
 70
     1
102
RTVSPropertyOp27
 70
     1
102
RTVSPropertyOp28
 70
     1
102
RTVSPropertyOp29
 70
     1
102
RTVSPropertyOp30
 70
     1
102
RTVSPropertyOp31
 70
     1
102
RTVSPropertyOp32
 70
     1
  0
XRECORD
  5
D8
102
{ACAD_REACTORS
330
D7
102
}
330
D7
100
AcDbXrecord
280
     1
102
RTVSPropertyOp0
 70
     1
102
RTVSPropertyOp1
 70
     1
102
RTVSPropertyOp2
 70
     1
102
RTVSPropertyOp3
 70
     1
102
RTVSPropertyOp4
 70
     1
102
RTVSPropertyOp5
 70
     1
102
RTVSPropertyOp6
 70
     1
102
RTVSPropertyOp7
 70
     1
102
RTVSPropertyOp8
 70
     1
102
RTVSPropertyOp9
 70
     1
102
RTVSPropertyOp10
 70
     1
102
RTVSPropertyOp11
 70
     1
102
RTVSPropertyOp12
 70
     1
102
RTVSPropertyOp13
 70
     1
102
RTVSPropertyOp14
 70
     1
102
RTVSPropertyOp15
 70
     1
102
RTVSPropertyOp16
 70
     1
102
RTVSPropertyOp17
 70
     1
102
RTVSPropertyOp18
 70
     1
102
RTVSPropertyOp19
 70
     1
102
RTVSPropertyOp20
 70
     1
102
RTVSPropertyOp21
 70
     1
102
RTVSPropertyOp22
 70
     1
102
RTVSPropertyOp23
 70
     1
102
RTVSPropertyOp24
 70
     1
102
RTVSPropertyOp25
 70
     1
102
RTVSPropertyOp26
 70
     1
102
RTVSPropertyOp27
 70
     1
102
RTVSPropertyOp28
 70
     1
102
RTVSPropertyOp29
 70
     1
102
RTVSPropertyOp30
 70
     1
102
RTVSPropertyOp31
 70
     1
102
RTVSPropertyOp32
 70
     1
  0
XRECORD
  5
BC
102
{ACAD_REACTORS
330
BB
102
}
330
BB
100
AcDbXrecord
280
     1
102
RTVSPropertyOp0
 70
     1
102
RTVSPropertyOp1
 70
     1
102
RTVSPropertyOp2
 70
     1
102
RTVSPropertyOp3
 70
     1
102
RTVSPropertyOp4
 70
     1
102
RTVSPropertyOp5
 70
     1
102
RTVSPropertyOp6
 70
     1
102
RTVSPropertyOp7
 70
     1
102
RTVSPropertyOp8
 70
     1
102
RTVSPropertyOp9
 70
     1
102
RTVSPropertyOp10
 70
     1
102
RTVSPropertyOp11
 70
     1
102
RTVSPropertyOp12
 70
     1
102
RTVSPropertyOp13
 70
     1
102
RTVSPropertyOp14
 70
     1
102
RTVSPropertyOp15
 70
     1
102
RTVSPropertyOp16
 70
     1
102
RTVSPropertyOp17
 70
     1
102
RTVSPropertyOp18
 70
     1
102
RTVSPropertyOp19
 70
     1
102
RTVSPropertyOp20
 70
     1
102
RTVSPropertyOp21
 70
     1
102
RTVSPropertyOp22
 70
     1
102
RTVSPropertyOp23
 70
     1
102
RTVSPropertyOp24
 70
     1
102
RTVSPropertyOp25
 70
     1
102
RTVSPropertyOp26
 70
     1
102
RTVSPropertyOp27
 70
     1
102
RTVSPropertyOp28
 70
     1
102
RTVSPropertyOp29
 70
     1
102
RTVSPropertyOp30
 70
     1
102
RTVSPropertyOp31
 70
     1
102
RTVSPropertyOp32
 70
     1
  0
XRECORD
  5
BE
102
{ACAD_REACTORS
330
BD
102
}
330
BD
100
AcDbXrecord
280
     1
102
RTVSPropertyOp0
 70
     1
102
RTVSPropertyOp1
 70
     1
102
RTVSPropertyOp2
 70
     1
102
RTVSPropertyOp3
 70
     1
102
RTVSPropertyOp4
 70
     1
102
RTVSPropertyOp5
 70
     1
102
RTVSPropertyOp6
 70
     1
102
RTVSPropertyOp7
 70
     1
102
RTVSPropertyOp8
 70
     1
102
RTVSPropertyOp9
 70
     1
102
RTVSPropertyOp10
 70
     1
102
RTVSPropertyOp11
 70
     1
102
RTVSPropertyOp12
 70
     1
102
RTVSPropertyOp13
 70
     1
102
RTVSPropertyOp14
 70
     1
102
RTVSPropertyOp15
 70
     1
102
RTVSPropertyOp16
 70
     1
102
RTVSPropertyOp17
 70
     1
102
RTVSPropertyOp18
 70
     1
102
RTVSPropertyOp19
 70
     1
102
RTVSPropertyOp20
 70
     1
102
RTVSPropertyOp21
 70
     1
102
RTVSPropertyOp22
 70
     1
102
RTVSPropertyOp23
 70
     1
102
RTVSPropertyOp24
 70
     1
102
RTVSPropertyOp25
 70
     1
102
RTVSPropertyOp26
 70
     1
102
RTVSPropertyOp27
 70
     1
102
RTVSPropertyOp28
 70
     1
102
RTVSPropertyOp29
 70
     1
102
RTVSPropertyOp30
 70
     1
102
RTVSPropertyOp31
 70
     1
102
RTVSPropertyOp32
 70
     1
  0
XRECORD
  5
C0
102
{ACAD_REACTORS
330
BF
102
}
330
BF
100
AcDbXrecord
280
     1
102
RTVSPropertyOp0
 70
     1
102
RTVSPropertyOp1
 70
     1
102
RTVSPropertyOp2
 70
     1
102
RTVSPropertyOp3
 70
     1
102
RTVSPropertyOp4
 70
     1
102
RTVSPropertyOp5
 70
     1
102
RTVSPropertyOp6
 70
     1
102
RTVSPropertyOp7
 70
     1
102
RTVSPropertyOp8
 70
     1
102
RTVSPropertyOp9
 70
     1
102
RTVSPropertyOp10
 70
     1
102
RTVSPropertyOp11
 70
     1
102
RTVSPropertyOp12
 70
     1
102
RTVSPropertyOp13
 70
     1
102
RTVSPropertyOp14
 70
     1
102
RTVSPropertyOp15
 70
     1
102
RTVSPropertyOp16
 70
     1
102
RTVSPropertyOp17
 70
     1
102
RTVSPropertyOp18
 70
     1
102
RTVSPropertyOp19
 70
     1
102
RTVSPropertyOp20
 70
     1
102
RTVSPropertyOp21
 70
     1
102
RTVSPropertyOp22
 70
     1
102
RTVSPropertyOp23
 70
     1
102
RTVSPropertyOp24
 70
     1
102
RTVSPropertyOp25
 70
     1
102
RTVSPropertyOp26
 70
     1
102
RTVSPropertyOp27
 70
     1
102
RTVSPropertyOp28
 70
     1
102
RTVSPropertyOp29
 70
     1
102
RTVSPropertyOp30
 70
     1
102
RTVSPropertyOp31
 70
     1
102
RTVSPropertyOp32
 70
     1
  0
XRECORD
  5
C2
102
{ACAD_REACTORS
330
C1
102
}
330
C1
100
AcDbXrecord
280
     1
102
RTVSPropertyOp0
 70
     1
102
RTVSPropertyOp1
 70
     1
102
RTVSPropertyOp2
 70
     1
102
RTVSPropertyOp3
 70
     1
102
RTVSPropertyOp4
 70
     1
102
RTVSPropertyOp5
 70
     1
102
RTVSPropertyOp6
 70
     1
102
RTVSPropertyOp7
 70
     1
102
RTVSPropertyOp8
 70
     1
102
RTVSPropertyOp9
 70
     1
102
RTVSPropertyOp10
 70
     1
102
RTVSPropertyOp11
 70
     1
102
RTVSPropertyOp12
 70
     1
102
RTVSPropertyOp13
 70
     1
102
RTVSPropertyOp14
 70
     1
102
RTVSPropertyOp15
 70
     1
102
RTVSPropertyOp16
 70
     1
102
RTVSPropertyOp17
 70
     1
102
RTVSPropertyOp18
 70
     1
102
RTVSPropertyOp19
 70
     1
102
RTVSPropertyOp20
 70
     1
102
RTVSPropertyOp21
 70
     1
102
RTVSPropertyOp22
 70
     1
102
RTVSPropertyOp23
 70
     1
102
RTVSPropertyOp24
 70
     1
102
RTVSPropertyOp25
 70
     1
102
RTVSPropertyOp26
 70
     1
102
RTVSPropertyOp27
 70
     1
102
RTVSPropertyOp28
 70
     1
102
RTVSPropertyOp29
 70
     1
102
RTVSPropertyOp30
 70
     1
102
RTVSPropertyOp31
 70
     1
102
RTVSPropertyOp32
 70
     1
  0
XRECORD
  5
D6
102
{ACAD_REACTORS
330
D5
102
}
330
D5
100
AcDbXrecord
280
     1
102
RTVSPropertyOp0
 70
     1
102
RTVSPropertyOp1
 70
     1
102
RTVSPropertyOp2
 70
     1
102
RTVSPropertyOp3
 70
     1
102
RTVSPropertyOp4
 70
     1
102
RTVSPropertyOp5
 70
     1
102
RTVSPropertyOp6
 70
     1
102
RTVSPropertyOp7
 70
     1
102
RTVSPropertyOp8
 70
     1
102
RTVSPropertyOp9
 70
     1
102
RTVSPropertyOp10
 70
     1
102
RTVSPropertyOp11
 70
     1
102
RTVSPropertyOp12
 70
     1
102
RTVSPropertyOp13
 70
     1
102
RTVSPropertyOp14
 70
     1
102
RTVSPropertyOp15
 70
     1
102
RTVSPropertyOp16
 70
     1
102
RTVSPropertyOp17
 70
     1
102
RTVSPropertyOp18
 70
     1
102
RTVSPropertyOp19
 70
     1
102
RTVSPropertyOp20
 70
     1
102
RTVSPropertyOp21
 70
     1
102
RTVSPropertyOp22
 70
     1
102
RTVSPropertyOp23
 70
     1
102
RTVSPropertyOp24
 70
     1
102
RTVSPropertyOp25
 70
     1
102
RTVSPropertyOp26
 70
     1
102
RTVSPropertyOp27
 70
     1
102
RTVSPropertyOp28
 70
     1
102
RTVSPropertyOp29
 70
     1
102
RTVSPropertyOp30
 70
     1
102
RTVSPropertyOp31
 70
     1
102
RTVSPropertyOp32
 70
     1
  0
XRECORD
  5
CC
102
{ACAD_REACTORS
330
CB
102
}
330
CB
100
AcDbXrecord
280
     1
102
RTVSPropertyOp0
 70
     1
102
RTVSPropertyOp1
 70
     1
102
RTVSPropertyOp2
 70
     1
102
RTVSPropertyOp3
 70
     1
102
RTVSPropertyOp4
 70
     1
102
RTVSPropertyOp5
 70
     1
102
RTVSPropertyOp6
 70
     1
102
RTVSPropertyOp7
 70
     1
102
RTVSPropertyOp8
 70
     1
102
RTVSPropertyOp9
 70
     1
102
RTVSPropertyOp10
 70
     1
102
RTVSPropertyOp11
 70
     1
102
RTVSPropertyOp12
 70
     1
102
RTVSPropertyOp13
 70
     1
102
RTVSPropertyOp14
 70
     1
102
RTVSPropertyOp15
 70
     1
102
RTVSPropertyOp16
 70
     1
102
RTVSPropertyOp17
 70
     1
102
RTVSPropertyOp18
 70
     1
102
RTVSPropertyOp19
 70
     1
102
RTVSPropertyOp20
 70
     1
102
RTVSPropertyOp21
 70
     1
102
RTVSPropertyOp22
 70
     1
102
RTVSPropertyOp23
 70
     1
102
RTVSPropertyOp24
 70
     1
102
RTVSPropertyOp25
 70
     1
102
RTVSPropertyOp26
 70
     1
102
RTVSPropertyOp27
 70
     1
102
RTVSPropertyOp28
 70
     1
102
RTVSPropertyOp29
 70
     1
102
RTVSPropertyOp30
 70
     1
102
RTVSPropertyOp31
 70
     1
102
RTVSPropertyOp32
 70
     1
  0
XRECORD
  5
D4
102
{ACAD_REACTORS
330
D3
102
}
330
D3
100
AcDbXrecord
280
     1
102
RTVSPropertyOp0
 70
     1
102
RTVSPropertyOp1
 70
     1
102
RTVSPropertyOp2
 70
     1
102
RTVSPropertyOp3
 70
     1
102
RTVSPropertyOp4
 70
     1
102
RTVSPropertyOp5
 70
     1
102
RTVSPropertyOp6
 70
     1
102
RTVSPropertyOp7
 70
     1
102
RTVSPropertyOp8
 70
     1
102
RTVSPropertyOp9
 70
     1
102
RTVSPropertyOp10
 70
     1
102
RTVSPropertyOp11
 70
     1
102
RTVSPropertyOp12
 70
     1
102
RTVSPropertyOp13
 70
     1
102
RTVSPropertyOp14
 70
     1
102
RTVSPropertyOp15
 70
     1
102
RTVSPropertyOp16
 70
     1
102
RTVSPropertyOp17
 70
     1
102
RTVSPropertyOp18
 70
     1
102
RTVSPropertyOp19
 70
     1
102
RTVSPropertyOp20
 70
     1
102
RTVSPropertyOp21
 70
     1
102
RTVSPropertyOp22
 70
     1
102
RTVSPropertyOp23
 70
     1
102
RTVSPropertyOp24
 70
     1
102
RTVSPropertyOp25
 70
     1
102
RTVSPropertyOp26
 70
     1
102
RTVSPropertyOp27
 70
     1
102
RTVSPropertyOp28
 70
     1
102
RTVSPropertyOp29
 70
     1
102
RTVSPropertyOp30
 70
     1
102
RTVSPropertyOp31
 70
     1
102
RTVSPropertyOp32
 70
     1
  0
ENDSEC
  0
EOF
